999
dxflib 2.0.4.8
  0
SECTION
  2
HEADER
  9
$ACADVER
  1
AC1015
  9
$HANDSEED
  5
FFFF
  9
$USERR4
 40
0.0
  9
$AXISUNIT
 10
0.0
 20
0.0
 30
0.0
  9
$DIMTAD
 70
0
  9
$VISRETAIN
 70
0
  9
$TILEMODE
 70
1
  9
$SHADEDIF
 70
70
  9
$USERR5
 40
0.0
  9
$UCSYDIR
 10
0.0
 20
1.0
 30
0.0
  9
$ATTREQ
 70
1
  9
$CHAMFERA
 40
0.0
  9
$MENU
  1
acad
  9
$CLAYER
  8
0
  9
$DIMASZ
 40
0.18
  9
$GRIDUNIT
 10
0.0
 20
0.0
  9
$DIMADEC
 70
0
  9
$UCSXDIR
 10
1.0
 20
0.0
 30
0.0
  9
$CHAMFERB
 40
0.0
  9
$TRACEWID
 40
0.05
  9
$REGENMODE
 70
1
  9
$ORTHOMODE
 70
0
  9
$EXTMIN
 10
-20.0549999999999997
 20
-1.6899999999999999
 30
0.0
  9
$DIMGAP
 40
0.09
  9
$PUCSYDIR
 10
0.0
 20
1.0
 30
0.0
  9
$ANGBASE
 50
0.0
  9
$USRTIMER
 70
1
  9
$SKETCHINC
 40
0.1
  9
$DIMTFAC
 40
1.0
  9
$DIMSAH
 70
0
  9
$DIMALT
 70
0
  9
$DIMSHO
 70
1
  9
$PUCSXDIR
 10
1.0
 20
0.0
 30
0.0
  9
$SURFTYPE
 70
6
  9
$SPLFRAME
 70
0
  9
$AXISMODE
 70
0
  9
$DIMTSZ
 40
0.0
  9
$LIMMIN
 10
0.0
 20
0.0
  9
$SPLINESEGS
 70
8
  9
$AUPREC
 70
0
  9
$LUNITS
 70
2
  9
$DWGCODEPAGE
  3
dos850
  9
$SURFTAB1
 70
6
  9
$BLIPMODE
 70
1
  9
$UNITMODE
 70
0
  9
$USERI1
 70
0
  9
$SURFTAB2
 70
6
  9
$SKPOLY
 70
0
  9
$ELEVATION
 40
0.0
  9
$DIMCEN
 40
0.09
  9
$DIMRND
 40
0.0
  9
$INSBASE
 10
0.0
 20
0.0
 30
0.0
  9
$DIMEXO
 40
0.0625
  9
$INSUNITS
 70
4
  9
$USERI2
 70
0
  9
$UCSORG
 10
0.0
 20
0.0
 30
0.0
  9
$PELEVATION
 40
0.0
  9
$TEXTSIZE
 40
0.2
  9
$DRAGMODE
 70
2
  9
$FILLMODE
 70
1
  9
$EXTMAX
 10
-8.9450000000000003
 20
16.4899999999999984
 30
0.0
  9
$USERI3
 70
0
  9
$SURFU
 70
6
  9
$ANGDIR
 70
0
  9
$TDUSRTIMER
 40
0.0
  9
$DIMZIN
 70
0
  9
$DIMDLE
 40
0.0
  9
$DIMSCALE
 40
1.0
  9
$DIMLUNIT
 70
2
  9
$WORLDVIEW
 70
1
  9
$USERI4
 70
0
  9
$SURFV
 70
6
  9
$OSMODE
 70
0
  9
$QTEXTMODE
 70
0
  9
$LIMMAX
 10
0.0
 20
0.0
  9
$DIMTXT
 40
0.18
  9
$GRIDMODE
 70
1
  9
$USERI5
 70
0
  9
$HANDLING
 70
1
  9
$PDMODE
 70
0
  9
$LIMCHECK
 70
0
  9
$THICKNESS
 40
0.0
  9
$DIMSE1
 70
0
  9
$DIMLIM
 70
0
  9
$ATTMODE
 70
1
  9
$LUPREC
 70
4
  9
$PEXTMAX
 10
-100000000000000000000.0
 20
-100000000000000000000.0
 30
-100000000000000000000.0
  9
$PEXTMIN
 10
100000000000000000000.0
 20
100000000000000000000.0
 30
100000000000000000000.0
  9
$PUCSORG
 10
0.0
 20
0.0
 30
0.0
  9
$SPLINETYPE
 70
6
  9
$TDINDWG
 40
0.0
  9
$DIMSOXD
 70
0
  9
$DIMLFAC
 40
1.0
  9
$DIMSE2
 70
0
  9
$DIMTOH
 70
1
  9
$CELTYPE
  6
CONTINUOUS
  9
$PLIMCHECK
 70
0
  9
$PLINEWID
 40
0.0
  9
$DIMSTYLE
  2
STANDARD
  9
$DIMTVP
 40
0.0
  9
$DIMASO
 70
1
  9
$DIMTM
 40
0.0
  9
$DIMDLI
 40
0.38
  9
$CECOLOR
 62
256
  9
$PLIMMAX
 10
210.0
 20
297.0
  9
$PLIMMIN
 10
0.0
 20
0.0
  9
$TREEDEPTH
 70
3020
  9
$MAXACTVP
 70
16
  9
$TDUPDATE
 40
0.0
  9
$FILLETRAD
 40
0.0
  9
$DIMCLRT
 70
0
  9
$DIMALTD
 70
2
  9
$DIMTIH
 70
1
  9
$LTSCALE
 40
1.0
  9
$PINSBASE
 10
119.3920578602614739
 20
140.6659388646291404
 30
0.0
  9
$DIMEXE
 40
0.18
  9
$USERR1
 40
0.0
  9
$ATTDIA
 70
0
  9
$PDSIZE
 40
0.0
  9
$DIMCLRD
 70
0
  9
$DIMAUNIT
 70
0
  9
$PSLTSCALE
 70
0
  9
$PLINEGEN
 70
1
  9
$SHADEDGE
 70
3
  9
$USERR2
 40
0.0
  9
$COORDS
 70
0
  9
$TDCREATE
 40
0.0
  9
$DIMCLRE
 70
0
  9
$DIMTOFL
 70
0
  9
$DIMALTF
 40
25.3999999999999986
  9
$DIMTOL
 70
0
  9
$DIMTP
 40
0.0
  9
$TEXTSTYLE
  7
STANDARD
  9
$AUNITS
 70
0
  9
$USERR3
 40
0.0
  9
$DIMTIX
 70
0
  9
$MIRRTEXT
 70
1
  0
ENDSEC
  0
SECTION
  2
TABLES
  0
TABLE
  2
VPORT
  5
8
100
AcDbSymbolTable
 70
1
  0
VPORT
  5
30
100
AcDbSymbolTableRecord
100
AcDbViewportTableRecord
  2
*Active
 70
0
 10
0.0
 20
0.0
 11
1.0
 21
1.0
 12
286.3055555555554861
 22
148.5
 13
0.0
 23
0.0
 14
10.0
 24
10.0
 15
10.0
 25
10.0
 16
0.0
 26
0.0
 36
1.0
 17
0.0
 27
0.0
 37
0.0
 40
297.0
 41
1.92798353909465
 42
50.0
 43
0.0
 44
0.0
 50
0.0
 51
0.0
 71
0
 72
100
 73
1
 74
3
 75
1
 76
1
 77
0
 78
0
281
0
 65
1
110
0.0
120
0.0
130
0.0
111
1.0
121
0.0
131
0.0
112
0.0
122
1.0
132
0.0
 79
0
146
0.0
  0
ENDTAB
  0
TABLE
  2
LTYPE
  5
5
100
AcDbSymbolTable
 70
21
  0
LTYPE
  5
14
100
AcDbSymbolTableRecord
100
AcDbLinetypeTableRecord
  2
ByBlock
 70
0
  3

 72
65
 73
0
 40
0.0
  0
LTYPE
  5
15
100
AcDbSymbolTableRecord
100
AcDbLinetypeTableRecord
  2
ByLayer
 70
0
  3

 72
65
 73
0
 40
0.0
  0
LTYPE
  5
16
100
AcDbSymbolTableRecord
100
AcDbLinetypeTableRecord
  2
CONTINUOUS
 70
0
  3
Solid line
 72
65
 73
0
 40
0.0
  0
LTYPE
  5
31
100
AcDbSymbolTableRecord
100
AcDbLinetypeTableRecord
  2
DOT
 70
0
  3
Dot . . . . . . . . . . . . . . . . . . . . . .
 72
65
 73
2
 40
6.3499999999999996
 49
0.0
 74
0
 49
-6.3499999999999996
 74
0
  0
LTYPE
  5
32
100
AcDbSymbolTableRecord
100
AcDbLinetypeTableRecord
  2
DOT2
 70
0
  3
Dot (.5x) .....................................
 72
65
 73
2
 40
3.1749999999999998
 49
0.0
 74
0
 49
-3.1749999999999998
 74
0
  0
LTYPE
  5
33
100
AcDbSymbolTableRecord
100
AcDbLinetypeTableRecord
  2
DOTX2
 70
0
  3
Dot (2x) .  .  .  .  .  .  .  .  .  .  .  .  .
 72
65
 73
2
 40
12.6999999999999993
 49
0.0
 74
0
 49
-12.6999999999999993
 74
0
  0
LTYPE
  5
34
100
AcDbSymbolTableRecord
100
AcDbLinetypeTableRecord
  2
DASHED
 70
0
  3
Dashed __ __ __ __ __ __ __ __ __ __ __ __ __ _
 72
65
 73
2
 40
19.0500000000000007
 49
12.6999999999999993
 74
0
 49
-6.3499999999999996
 74
0
  0
LTYPE
  5
35
100
AcDbSymbolTableRecord
100
AcDbLinetypeTableRecord
  2
DASHED2
 70
0
  3
Dashed (.5x) _ _ _ _ _ _ _ _ _ _ _ _ _ _ _ _ _
 72
65
 73
2
 40
9.5250000000000004
 49
6.3499999999999996
 74
0
 49
-3.1749999999999998
 74
0
  0
LTYPE
  5
36
100
AcDbSymbolTableRecord
100
AcDbLinetypeTableRecord
  2
DASHEDX2
 70
0
  3
Dashed (2x) ____  ____  ____  ____  ____  ___
 72
65
 73
2
 40
38.1000000000000014
 49
25.3999999999999986
 74
0
 49
-12.6999999999999993
 74
0
  0
LTYPE
  5
37
100
AcDbSymbolTableRecord
100
AcDbLinetypeTableRecord
  2
DASHDOT
 70
0
  3
Dash dot __ . __ . __ . __ . __ . __ . __ . __
 72
65
 73
4
 40
25.3999999999999986
 49
12.6999999999999993
 74
0
 49
-6.3499999999999996
 74
0
 49
0.0
 74
0
 49
-6.3499999999999996
 74
0
  0
LTYPE
  5
38
100
AcDbSymbolTableRecord
100
AcDbLinetypeTableRecord
  2
DASHDOT2
 70
0
  3
Dash dot (.5x) _._._._._._._._._._._._._._._.
 72
65
 73
4
 40
12.6999999999999993
 49
6.3499999999999996
 74
0
 49
-3.1749999999999998
 74
0
 49
0.0
 74
0
 49
-3.1749999999999998
 74
0
  0
LTYPE
  5
39
100
AcDbSymbolTableRecord
100
AcDbLinetypeTableRecord
  2
DASHDOTX2
 70
0
  3
Dash dot (2x) ____  .  ____  .  ____  .  ___
 72
65
 73
4
 40
50.7999999999999972
 49
25.3999999999999986
 74
0
 49
-12.6999999999999993
 74
0
 49
0.0
 74
0
 49
-12.6999999999999993
 74
0
  0
LTYPE
  5
3A
100
AcDbSymbolTableRecord
100
AcDbLinetypeTableRecord
  2
DIVIDE
 70
0
  3
Divide ____ . . ____ . . ____ . . ____ . . ____
 72
65
 73
6
 40
31.75
 49
12.6999999999999993
 74
0
 49
-6.3499999999999996
 74
0
 49
0.0
 74
0
 49
-6.3499999999999996
 74
0
 49
0.0
 74
0
 49
-6.3499999999999996
 74
0
  0
LTYPE
  5
3B
100
AcDbSymbolTableRecord
100
AcDbLinetypeTableRecord
  2
DIVIDE2
 70
0
  3
Divide (.5x) __..__..__..__..__..__..__..__.._
 72
65
 73
6
 40
15.875
 49
6.3499999999999996
 74
0
 49
-3.1749999999999998
 74
0
 49
0.0
 74
0
 49
-3.1749999999999998
 74
0
 49
0.0
 74
0
 49
-3.1749999999999998
 74
0
  0
LTYPE
  5
3C
100
AcDbSymbolTableRecord
100
AcDbLinetypeTableRecord
  2
DIVIDEX2
 70
0
  3
Divide (2x) ________  .  .  ________  .  .  _
 72
65
 73
6
 40
63.5
 49
25.3999999999999986
 74
0
 49
-12.6999999999999993
 74
0
 49
0.0
 74
0
 49
-12.6999999999999993
 74
0
 49
0.0
 74
0
 49
-12.6999999999999993
 74
0
  0
LTYPE
  5
3D
100
AcDbSymbolTableRecord
100
AcDbLinetypeTableRecord
  2
CENTER
 70
0
  3
Center ____ _ ____ _ ____ _ ____ _ ____ _ ____
 72
65
 73
4
 40
50.7999999999999972
 49
31.75
 74
0
 49
-6.3499999999999996
 74
0
 49
6.3499999999999996
 74
0
 49
-6.3499999999999996
 74
0
  0
LTYPE
  5
3E
100
AcDbSymbolTableRecord
100
AcDbLinetypeTableRecord
  2
CENTER2
 70
0
  3
Center (.5x) ___ _ ___ _ ___ _ ___ _ ___ _ ___
 72
65
 73
4
 40
28.5749999999999993
 49
19.0500000000000007
 74
0
 49
-3.1749999999999998
 74
0
 49
3.1749999999999998
 74
0
 49
-3.1749999999999998
 74
0
  0
LTYPE
  5
3F
100
AcDbSymbolTableRecord
100
AcDbLinetypeTableRecord
  2
CENTERX2
 70
0
  3
Center (2x) ________  __  ________  __  _____
 72
65
 73
4
 40
101.5999999999999943
 49
63.5
 74
0
 49
-12.6999999999999993
 74
0
 49
12.6999999999999993
 74
0
 49
-12.6999999999999993
 74
0
  0
LTYPE
  5
40
100
AcDbSymbolTableRecord
100
AcDbLinetypeTableRecord
  2
BORDER
 70
0
  3
Border __ __ . __ __ . __ __ . __ __ . __ __ .
 72
65
 73
6
 40
44.4500000000000028
 49
12.6999999999999993
 74
0
 49
-6.3499999999999996
 74
0
 49
12.6999999999999993
 74
0
 49
-6.3499999999999996
 74
0
 49
0.0
 74
0
 49
-6.3499999999999996
 74
0
  0
LTYPE
  5
41
100
AcDbSymbolTableRecord
100
AcDbLinetypeTableRecord
  2
BORDER2
 70
0
  3
Border (.5x) __.__.__.__.__.__.__.__.__.__.__.
 72
65
 73
6
 40
22.2250000000000014
 49
6.3499999999999996
 74
0
 49
-3.1749999999999998
 74
0
 49
6.3499999999999996
 74
0
 49
-3.1749999999999998
 74
0
 49
0.0
 74
0
 49
-3.1749999999999998
 74
0
  0
LTYPE
  5
42
100
AcDbSymbolTableRecord
100
AcDbLinetypeTableRecord
  2
BORDERX2
 70
0
  3
Border (2x) ____  ____  .  ____  ____  .  ___
 72
65
 73
6
 40
88.9000000000000057
 49
25.3999999999999986
 74
0
 49
-12.6999999999999993
 74
0
 49
25.3999999999999986
 74
0
 49
-12.6999999999999993
 74
0
 49
0.0
 74
0
 49
-12.6999999999999993
 74
0
  0
ENDTAB
  0
TABLE
  2
LAYER
  5
2
100
AcDbSymbolTable
 70
7
  0
LAYER
  5
10
100
AcDbSymbolTableRecord
100
AcDbLayerTableRecord
  2
0
 70
0
 62
7
  6
CONTINUOUS
390
F
  0
LAYER
  5
43
100
AcDbSymbolTableRecord
100
AcDbLayerTableRecord
  2
MERGE
 70
0
 62
7
  6
CONTINUOUS
390
F
  0
LAYER
  5
44
100
AcDbSymbolTableRecord
100
AcDbLayerTableRecord
  2
STANDARD
 70
0
 62
7
  6
CONTINUOUS
370
25
390
F
  0
LAYER
  5
45
100
AcDbSymbolTableRecord
100
AcDbLayerTableRecord
  2
PINS
 70
0
 62
7
  6
CONTINUOUS
390
F
  0
LAYER
  5
46
100
AcDbSymbolTableRecord
100
AcDbLayerTableRecord
  2
PARAMS
 70
0
 62
7
  6
CONTINUOUS
370
25
390
F
  0
LAYER
  5
47
100
AcDbSymbolTableRecord
100
AcDbLayerTableRecord
  2
OUTLINE
 70
0
 62
7
  6
CONTINUOUS
390
F
  0
LAYER
  5
48
100
AcDbSymbolTableRecord
100
AcDbLayerTableRecord
  2
INTERNALS
 70
0
 62
7
  6
CONTINUOUS
370
25
390
F
  0
ENDTAB
  0
TABLE
  2
STYLE
  5
3
100
AcDbSymbolTable
 70
1
  0
STYLE
  5
11
100
AcDbSymbolTableRecord
100
AcDbTextStyleTableRecord
  2
Standard
 70
0
 40
0.0
 41
0.75
 50
0.0
 71
0
 42
2.5
  3
txt
  4

  0
ENDTAB
  0
TABLE
  2
VIEW
  5
6
100
AcDbSymbolTable
 70
0
  0
ENDTAB
  0
TABLE
  2
UCS
  5
7
100
AcDbSymbolTable
 70
0
  0
ENDTAB
  0
TABLE
  2
APPID
  5
9
100
AcDbSymbolTable
 70
1
  0
APPID
  5
12
100
AcDbSymbolTableRecord
100
AcDbRegAppTableRecord
  2
ACAD
 70
0
  0
ENDTAB
  0
TABLE
  2
DIMSTYLE
  5
A
100
AcDbSymbolTable
 70
1
100
AcDbDimStyleTable
 71
0
  0
DIMSTYLE
105
27
100
AcDbSymbolTableRecord
100
AcDbDimStyleTableRecord
  2
Standard
 41
0.18
 42
0.0625
 43
3.75
 44
0.18
 70
0
 73
0
 74
0
 77
1
 78
8
140
0.18
141
2.5
143
0.03937007874016
147
0.09
171
3
172
1
271
2
272
2
274
3
278
44
283
0
284
8
340
11
  0
ENDTAB
  0
TABLE
  2
BLOCK_RECORD
  5
1
100
AcDbSymbolTable
 70
1
  0
BLOCK_RECORD
  5
1F
100
AcDbSymbolTableRecord
100
AcDbBlockTableRecord
  2
*Model_Space
340
22
  0
BLOCK_RECORD
  5
1B
100
AcDbSymbolTableRecord
100
AcDbBlockTableRecord
  2
*Paper_Space
340
1E
  0
BLOCK_RECORD
  5
23
100
AcDbSymbolTableRecord
100
AcDbBlockTableRecord
  2
*Paper_Space0
340
26
  0
ENDTAB
  0
ENDSEC
  0
SECTION
  2
BLOCKS
  0
BLOCK
  5
20
100
AcDbEntity
  8
0
100
AcDbBlockBegin
  2
*Model_Space
 70
0
 10
0.0
 20
0.0
 30
0.0
  3
*Model_Space
  1

  0
ENDBLK
  5
21
100
AcDbEntity
  8
0
100
AcDbBlockEnd
  0
BLOCK
  5
1C
100
AcDbEntity
 67
1
  8
0
100
AcDbBlockBegin
  2
*Paper_Space
 70
0
 10
0.0
 20
0.0
 30
0.0
  3
*Paper_Space
  1

  0
ENDBLK
  5
1D
100
AcDbEntity
 67
1
  8
0
100
AcDbBlockEnd
  0
BLOCK
  5
24
100
AcDbEntity
  8
0
100
AcDbBlockBegin
  2
*Paper_Space0
 70
0
 10
0.0
 20
0.0
 30
0.0
  3
*Paper_Space0
  1

  0
ENDBLK
  5
25
100
AcDbEntity
  8
0
100
AcDbBlockEnd
  0
ENDSEC
  0
SECTION
  2
ENTITIES
  0
LWPOLYLINE
  5
49
  8
STANDARD
 62
7
370
-1
  6
ByLayer
100
AcDbEntity
100
AcDbPolyline
 90
7
 70
1
 10
-96.8920578602614739
 20
-113.6659388646290978
 10
-96.8920578602614739
 20
-110.6659388646290978
 10
-77.3920578602614597
 20
-110.6659388646290978
 10
-75.8920578602614881
 20
-112.1659388646290978
 10
-77.3920578602614597
 20
-113.6659388646290978
 10
-96.8920578602614739
 20
-113.6659388646290978
 10
-96.8920578602614739
 20
-113.6659388646290978
  0
LWPOLYLINE
  5
4A
  8
STANDARD
 62
7
370
-1
  6
ByLayer
100
AcDbEntity
100
AcDbPolyline
 90
7
 70
1
 10
-96.8920578602614739
 20
-22.1659388646290942
 10
-96.8920578602614739
 20
-19.1659388646291049
 10
-77.3920578602614597
 20
-19.1659388646291049
 10
-75.8920578602614881
 20
-20.6659388646290978
 10
-77.3920578602614597
 20
-22.1659388646290942
 10
-96.8920578602614739
 20
-22.1659388646290942
 10
-96.8920578602614739
 20
-22.1659388646290942
  0
LWPOLYLINE
  5
4B
  8
STANDARD
 62
7
370
-1
  6
ByLayer
100
AcDbEntity
100
AcDbPolyline
 90
7
 70
1
 10
-96.8920578602614739
 20
69.3340611353709022
 10
-96.8920578602614739
 20
72.334061135370888
 10
-77.3920578602614597
 20
72.334061135370888
 10
-75.8920578602614881
 20
70.834061135370888
 10
-77.3920578602614597
 20
69.3340611353709022
 10
-96.8920578602614739
 20
69.3340611353709022
 10
-96.8920578602614739
 20
69.3340611353709022
  0
MTEXT
  5
4C
100
AcDbEntity
100
AcDbMText
  8
STANDARD
 62
7
370
-1
  6
ByLayer
 10
-87.8920578602614455
 20
-112.1659388646290978
 30
0.0
 40
1.5
 41
1500.0
 71
5
 72
2
  1
velocity
  7
STYLE1
 50
0.0
 73
0
 44
1.0
  0
MTEXT
  5
4D
100
AcDbEntity
100
AcDbMText
  8
STANDARD
 62
7
370
-1
  6
ByLayer
 10
-87.8920578602614455
 20
-20.6659388646290978
 30
0.0
 40
1.5
 41
1500.0
 71
5
 72
2
  1
velocity
  7
STYLE1
 50
0.0
 73
0
 44
1.0
  0
MTEXT
  5
4E
100
AcDbEntity
100
AcDbMText
  8
STANDARD
 62
7
370
-1
  6
ByLayer
 10
-87.8920578602614455
 20
70.834061135370888
 30
0.0
 40
1.5
 41
1500.0
 71
5
 72
2
  1
velocity
  7
STYLE1
 50
0.0
 73
0
 44
1.0
  0
LWPOLYLINE
  5
4F
  8
STANDARD
 62
7
370
-1
  6
ByLayer
100
AcDbEntity
100
AcDbPolyline
 90
7
 70
1
 10
66.6079421397385403
 20
-58.1659388646290978
 10
68.1079421397385261
 20
-56.6659388646290978
 10
66.6079421397385403
 20
-55.1659388646290978
 10
47.1079421397385261
 20
-55.1659388646290978
 10
47.1079421397385261
 20
-58.1659388646290978
 10
66.6079421397385403
 20
-58.1659388646290978
 10
66.6079421397385403
 20
-58.1659388646290978
  0
LWPOLYLINE
  5
50
  8
STANDARD
 62
7
370
-1
  6
ByLayer
100
AcDbEntity
100
AcDbPolyline
 90
7
 70
1
 10
66.6079421397385403
 20
-71.6659388646290978
 10
68.1079421397385261
 20
-70.1659388646290978
 10
66.6079421397385403
 20
-68.6659388646290978
 10
47.1079421397385261
 20
-68.6659388646290978
 10
47.1079421397385261
 20
-71.6659388646290978
 10
66.6079421397385403
 20
-71.6659388646290978
 10
66.6079421397385403
 20
-71.6659388646290978
  0
LWPOLYLINE
  5
51
  8
STANDARD
 62
7
370
-1
  6
ByLayer
100
AcDbEntity
100
AcDbPolyline
 90
7
 70
1
 10
66.6079421397385403
 20
-67.165938864629112
 10
68.1079421397385261
 20
-65.6659388646290978
 10
66.6079421397385403
 20
-64.1659388646290978
 10
47.1079421397385261
 20
-64.1659388646290978
 10
47.1079421397385261
 20
-67.165938864629112
 10
66.6079421397385403
 20
-67.165938864629112
 10
66.6079421397385403
 20
-67.165938864629112
  0
LWPOLYLINE
  5
52
  8
STANDARD
 62
7
370
-1
  6
ByLayer
100
AcDbEntity
100
AcDbPolyline
 90
7
 70
1
 10
66.6079421397385403
 20
22.8340611353709058
 10
68.1079421397385261
 20
24.3340611353709022
 10
66.6079421397385403
 20
25.8340611353708951
 10
47.1079421397385261
 20
25.8340611353708951
 10
47.1079421397385261
 20
22.8340611353709058
 10
66.6079421397385403
 20
22.8340611353709058
 10
66.6079421397385403
 20
22.8340611353709058
  0
LWPOLYLINE
  5
53
  8
STANDARD
 62
7
370
-1
  6
ByLayer
100
AcDbEntity
100
AcDbPolyline
 90
7
 70
1
 10
66.6079421397385403
 20
103.8340611353709164
 10
68.1079421397385261
 20
105.3340611353709022
 10
66.6079421397385403
 20
106.8340611353709022
 10
47.1079421397385261
 20
106.8340611353709022
 10
47.1079421397385261
 20
103.8340611353709164
 10
66.6079421397385403
 20
103.8340611353709164
 10
66.6079421397385403
 20
103.8340611353709164
  0
LWPOLYLINE
  5
54
  8
STANDARD
 62
7
370
-1
  6
ByLayer
100
AcDbEntity
100
AcDbPolyline
 90
7
 70
1
 10
66.6079421397385403
 20
-53.6659388646290978
 10
68.1079421397385261
 20
-52.1659388646290978
 10
66.6079421397385403
 20
-50.6659388646290978
 10
47.1079421397385261
 20
-50.6659388646290978
 10
47.1079421397385261
 20
-53.6659388646290978
 10
66.6079421397385403
 20
-53.6659388646290978
 10
66.6079421397385403
 20
-53.6659388646290978
  0
LWPOLYLINE
  5
55
  8
STANDARD
 62
7
370
-1
  6
ByLayer
100
AcDbEntity
100
AcDbPolyline
 90
7
 70
1
 10
66.6079421397385403
 20
-62.6659388646290978
 10
68.1079421397385261
 20
-61.1659388646290978
 10
66.6079421397385403
 20
-59.665938864629112
 10
47.1079421397385261
 20
-59.665938864629112
 10
47.1079421397385261
 20
-62.6659388646290978
 10
66.6079421397385403
 20
-62.6659388646290978
 10
66.6079421397385403
 20
-62.6659388646290978
  0
LWPOLYLINE
  5
56
  8
STANDARD
 62
7
370
-1
  6
ByLayer
100
AcDbEntity
100
AcDbPolyline
 90
7
 70
1
 10
66.6079421397385403
 20
30.3340611353709058
 10
68.1079421397385261
 20
31.8340611353709022
 10
66.6079421397385403
 20
33.3340611353708951
 10
47.1079421397385261
 20
33.3340611353708951
 10
47.1079421397385261
 20
30.3340611353709058
 10
66.6079421397385403
 20
30.3340611353709058
 10
66.6079421397385403
 20
30.3340611353709058
  0
LWPOLYLINE
  5
57
  8
STANDARD
 62
7
370
-1
  6
ByLayer
100
AcDbEntity
100
AcDbPolyline
 90
7
 70
1
 10
66.6079421397385403
 20
112.8340611353709022
 10
68.1079421397385261
 20
114.3340611353709022
 10
66.6079421397385403
 20
115.8340611353709022
 10
47.1079421397385261
 20
115.8340611353709022
 10
47.1079421397385261
 20
112.8340611353709022
 10
66.6079421397385403
 20
112.8340611353709022
 10
66.6079421397385403
 20
112.8340611353709022
  0
LWPOLYLINE
  5
58
  8
STANDARD
 62
7
370
-1
  6
ByLayer
100
AcDbEntity
100
AcDbPolyline
 90
7
 70
1
 10
-95.3920578602614455
 20
-74.665938864629112
 10
-96.8920578602614739
 20
-73.1659388646290978
 10
-95.3920578602614455
 20
-71.6659388646290978
 10
-75.8920578602614881
 20
-71.6659388646290978
 10
-75.8920578602614881
 20
-74.665938864629112
 10
-95.3920578602614455
 20
-74.665938864629112
 10
-95.3920578602614455
 20
-74.665938864629112
  0
LWPOLYLINE
  5
59
  8
STANDARD
 62
7
370
-1
  6
ByLayer
100
AcDbEntity
100
AcDbPolyline
 90
7
 70
1
 10
-95.3920578602614455
 20
16.8340611353709022
 10
-96.8920578602614739
 20
18.3340611353708951
 10
-95.3920578602614455
 20
19.8340611353708915
 10
-75.8920578602614881
 20
19.8340611353708915
 10
-75.8920578602614881
 20
16.8340611353709022
 10
-95.3920578602614455
 20
16.8340611353709022
 10
-95.3920578602614455
 20
16.8340611353709022
  0
LWPOLYLINE
  5
5A
  8
STANDARD
 62
7
370
-1
  6
ByLayer
100
AcDbEntity
100
AcDbPolyline
 90
7
 70
1
 10
-95.3920578602614455
 20
108.3340611353709022
 10
-96.8920578602614739
 20
109.834061135370888
 10
-95.3920578602614455
 20
111.3340611353709164
 10
-75.8920578602614881
 20
111.3340611353709164
 10
-75.8920578602614881
 20
108.3340611353709022
 10
-95.3920578602614455
 20
108.3340611353709022
 10
-95.3920578602614455
 20
108.3340611353709022
  0
LWPOLYLINE
  5
5B
  8
STANDARD
 62
7
370
-1
  6
ByLayer
100
AcDbEntity
100
AcDbPolyline
 90
7
 70
1
 10
-95.3920578602614455
 20
-59.665938864629112
 10
-96.8920578602614739
 20
-58.1659388646290978
 10
-95.3920578602614455
 20
-56.6659388646290978
 10
-75.8920578602614881
 20
-56.6659388646290978
 10
-75.8920578602614881
 20
-59.665938864629112
 10
-95.3920578602614455
 20
-59.665938864629112
 10
-95.3920578602614455
 20
-59.665938864629112
  0
LWPOLYLINE
  5
5C
  8
STANDARD
 62
7
370
-1
  6
ByLayer
100
AcDbEntity
100
AcDbPolyline
 90
7
 70
1
 10
-95.3920578602614455
 20
31.8340611353709022
 10
-96.8920578602614739
 20
33.3340611353708951
 10
-95.3920578602614455
 20
34.834061135370888
 10
-75.8920578602614881
 20
34.834061135370888
 10
-75.8920578602614881
 20
31.8340611353709022
 10
-95.3920578602614455
 20
31.8340611353709022
 10
-95.3920578602614455
 20
31.8340611353709022
  0
LWPOLYLINE
  5
5D
  8
STANDARD
 62
7
370
-1
  6
ByLayer
100
AcDbEntity
100
AcDbPolyline
 90
7
 70
1
 10
-95.3920578602614455
 20
123.3340611353709022
 10
-96.8920578602614739
 20
124.834061135370888
 10
-95.3920578602614455
 20
126.3340611353709164
 10
-75.8920578602614881
 20
126.3340611353709164
 10
-75.8920578602614881
 20
123.3340611353709022
 10
-95.3920578602614455
 20
123.3340611353709022
 10
-95.3920578602614455
 20
123.3340611353709022
  0
MTEXT
  5
5E
100
AcDbEntity
100
AcDbMText
  8
STANDARD
 62
7
370
-1
  6
ByLayer
 10
57.6079421397385403
 20
-56.6659388646290978
 30
0.0
 40
1.5
 41
1500.0
 71
5
 72
2
  1
phase-B
  7
STYLE1
 50
0.0
 73
0
 44
1.0
  0
MTEXT
  5
5F
100
AcDbEntity
100
AcDbMText
  8
STANDARD
 62
7
370
-1
  6
ByLayer
 10
57.6079421397385403
 20
-70.1659388646290978
 30
0.0
 40
1.5
 41
1500.0
 71
5
 72
2
  1
phase-E
  7
STYLE1
 50
0.0
 73
0
 44
1.0
  0
MTEXT
  5
60
100
AcDbEntity
100
AcDbMText
  8
STANDARD
 62
7
370
-1
  6
ByLayer
 10
57.6079421397385403
 20
-65.6659388646290978
 30
0.0
 40
1.5
 41
1500.0
 71
5
 72
2
  1
phase-D
  7
STYLE1
 50
0.0
 73
0
 44
1.0
  0
MTEXT
  5
61
100
AcDbEntity
100
AcDbMText
  8
STANDARD
 62
7
370
-1
  6
ByLayer
 10
57.6079421397385403
 20
24.3340611353709022
 30
0.0
 40
1.5
 41
1500.0
 71
5
 72
2
  1
down
  7
STYLE1
 50
0.0
 73
0
 44
1.0
  0
MTEXT
  5
62
100
AcDbEntity
100
AcDbMText
  8
STANDARD
 62
7
370
-1
  6
ByLayer
 10
57.6079421397385403
 20
105.3340611353709022
 30
0.0
 40
1.5
 41
1500.0
 71
5
 72
2
  1
step
  7
STYLE1
 50
0.0
 73
0
 44
1.0
  0
MTEXT
  5
63
100
AcDbEntity
100
AcDbMText
  8
STANDARD
 62
7
370
-1
  6
ByLayer
 10
57.6079421397385403
 20
-52.1659388646290978
 30
0.0
 40
1.5
 41
1500.0
 71
5
 72
2
  1
phase-A
  7
STYLE1
 50
0.0
 73
0
 44
1.0
  0
MTEXT
  5
64
100
AcDbEntity
100
AcDbMText
  8
STANDARD
 62
7
370
-1
  6
ByLayer
 10
57.6079421397385403
 20
-61.1659388646290978
 30
0.0
 40
1.5
 41
1500.0
 71
5
 72
2
  1
phase-C
  7
STYLE1
 50
0.0
 73
0
 44
1.0
  0
MTEXT
  5
65
100
AcDbEntity
100
AcDbMText
  8
STANDARD
 62
7
370
-1
  6
ByLayer
 10
57.6079421397385403
 20
31.8340611353709022
 30
0.0
 40
1.5
 41
1500.0
 71
5
 72
2
  1
up
  7
STYLE1
 50
0.0
 73
0
 44
1.0
  0
MTEXT
  5
66
100
AcDbEntity
100
AcDbMText
  8
STANDARD
 62
7
370
-1
  6
ByLayer
 10
57.6079421397385403
 20
114.3340611353709022
 30
0.0
 40
1.5
 41
1500.0
 71
5
 72
2
  1
dir
  7
STYLE1
 50
0.0
 73
0
 44
1.0
  0
MTEXT
  5
67
100
AcDbEntity
100
AcDbMText
  8
STANDARD
 62
7
370
-1
  6
ByLayer
 10
-86.3920578602614881
 20
-73.1659388646290978
 30
0.0
 40
1.5
 41
1500.0
 71
5
 72
2
  1
counts
  7
STYLE1
 50
0.0
 73
0
 44
1.0
  0
MTEXT
  5
68
100
AcDbEntity
100
AcDbMText
  8
STANDARD
 62
7
370
-1
  6
ByLayer
 10
-86.3920578602614881
 20
18.3340611353708951
 30
0.0
 40
1.5
 41
1500.0
 71
5
 72
2
  1
counts
  7
STYLE1
 50
0.0
 73
0
 44
1.0
  0
MTEXT
  5
69
100
AcDbEntity
100
AcDbMText
  8
STANDARD
 62
7
370
-1
  6
ByLayer
 10
-86.3920578602614881
 20
109.834061135370888
 30
0.0
 40
1.5
 41
1500.0
 71
5
 72
2
  1
counts
  7
STYLE1
 50
0.0
 73
0
 44
1.0
  0
MTEXT
  5
6A
100
AcDbEntity
100
AcDbMText
  8
STANDARD
 62
7
370
-1
  6
ByLayer
 10
-86.3920578602614881
 20
-58.1659388646290978
 30
0.0
 40
1.5
 41
1500.0
 71
5
 72
2
  1
position
  7
STYLE1
 50
0.0
 73
0
 44
1.0
  0
MTEXT
  5
6B
100
AcDbEntity
100
AcDbMText
  8
STANDARD
 62
7
370
-1
  6
ByLayer
 10
-86.3920578602614881
 20
33.3340611353708951
 30
0.0
 40
1.5
 41
1500.0
 71
5
 72
2
  1
position
  7
STYLE1
 50
0.0
 73
0
 44
1.0
  0
MTEXT
  5
6C
100
AcDbEntity
100
AcDbMText
  8
STANDARD
 62
7
370
-1
  6
ByLayer
 10
-86.3920578602614881
 20
124.834061135370888
 30
0.0
 40
1.5
 41
1500.0
 71
5
 72
2
  1
position
  7
STYLE1
 50
0.0
 73
0
 44
1.0
  0
CIRCLE
  5
6D
100
AcDbEntity
100
AcDbCircle
  8
INTERNALS
 62
7
370
-1
  6
ByLayer
 10
33.2329421397385403
 20
33.3340611353708951
 30
0.0
 40
0.375
  0
LWPOLYLINE
  5
6E
  8
INTERNALS
 62
7
370
-1
  6
ByLayer
100
AcDbEntity
100
AcDbPolyline
 90
5
 70
1
 10
32.8579421397385403
 20
33.3340611353708951
 10
29.1079421397385367
 20
35.5840611353709022
 10
29.1079421397385367
 20
31.0840611353708915
 10
32.8579421397385403
 20
33.3340611353708951
 10
32.8579421397385403
 20
33.3340611353708951
  0
MTEXT
  5
6F
100
AcDbEntity
100
AcDbMText
  8
PARAMS
 62
7
370
-1
  6
ByLayer
 10
-69.8920578602614597
 20
-100.1659388646290978
 30
0.0
 40
1.5
 41
1500.0
 71
5
 72
2
  1
maxfreq
  7
STYLE1
 50
0.0
 73
0
 44
1.0
  0
MTEXT
  5
70
100
AcDbEntity
100
AcDbMText
  8
PARAMS
 62
7
370
-1
  6
ByLayer
 10
-69.8920578602614597
 20
-8.6659388646291013
 30
0.0
 40
1.5
 41
1500.0
 71
5
 72
2
  1
maxfreq
  7
STYLE1
 50
0.0
 73
0
 44
1.0
  0
MTEXT
  5
71
100
AcDbEntity
100
AcDbMText
  8
PARAMS
 62
7
370
-1
  6
ByLayer
 10
-69.8920578602614597
 20
82.8340611353709022
 30
0.0
 40
1.5
 41
1500.0
 71
5
 72
2
  1
maxfreq
  7
STYLE1
 50
0.0
 73
0
 44
1.0
  0
MTEXT
  5
72
100
AcDbEntity
100
AcDbMText
  8
PARAMS
 62
7
370
-1
  6
ByLayer
 10
3.6079421397385225
 20
-103.5409388646290978
 30
0.0
 40
1.5
 41
1500.0
 71
5
 72
2
  1
frequency
  7
STYLE1
 50
0.0
 73
0
 44
1.0
  0
MTEXT
  5
73
100
AcDbEntity
100
AcDbMText
  8
PARAMS
 62
7
370
-1
  6
ByLayer
 10
3.6079421397385225
 20
-105.7909388646290978
 30
0.0
 40
1.5
 41
1500.0
 71
5
 72
2
  1
generator
  7
STYLE1
 50
0.0
 73
0
 44
1.0
  0
MTEXT
  5
74
100
AcDbEntity
100
AcDbMText
  8
PARAMS
 62
7
370
-1
  6
ByLayer
 10
3.6079421397385225
 20
-12.0409388646290978
 30
0.0
 40
1.5
 41
1500.0
 71
5
 72
2
  1
frequency
  7
STYLE1
 50
0.0
 73
0
 44
1.0
  0
MTEXT
  5
75
100
AcDbEntity
100
AcDbMText
  8
PARAMS
 62
7
370
-1
  6
ByLayer
 10
3.6079421397385225
 20
-14.2909388646291013
 30
0.0
 40
1.5
 41
1500.0
 71
5
 72
2
  1
generator
  7
STYLE1
 50
0.0
 73
0
 44
1.0
  0
MTEXT
  5
76
100
AcDbEntity
100
AcDbMText
  8
PARAMS
 62
7
370
-1
  6
ByLayer
 10
3.6079421397385225
 20
79.4590611353709164
 30
0.0
 40
1.5
 41
1500.0
 71
5
 72
2
  1
frequency
  7
STYLE1
 50
0.0
 73
0
 44
1.0
  0
MTEXT
  5
77
100
AcDbEntity
100
AcDbMText
  8
PARAMS
 62
7
370
-1
  6
ByLayer
 10
3.6079421397385225
 20
77.2090611353709022
 30
0.0
 40
1.5
 41
1500.0
 71
5
 72
2
  1
generator
  7
STYLE1
 50
0.0
 73
0
 44
1.0
  0
MTEXT
  5
78
100
AcDbEntity
100
AcDbMText
  8
PARAMS
 62
7
370
-1
  6
ByLayer
 10
15.6079421397385332
 20
-60.0409388646290978
 30
0.0
 40
1.5
 41
1500.0
 71
5
 72
2
  1
state
  7
STYLE1
 50
0.0
 73
0
 44
1.0
  0
MTEXT
  5
79
100
AcDbEntity
100
AcDbMText
  8
PARAMS
 62
7
370
-1
  6
ByLayer
 10
15.6079421397385332
 20
-62.2909388646290978
 30
0.0
 40
1.5
 41
1500.0
 71
5
 72
2
  1
counter
  7
STYLE1
 50
0.0
 73
0
 44
1.0
  0
MTEXT
  5
7A
100
AcDbEntity
100
AcDbMText
  8
PARAMS
 62
7
370
-1
  6
ByLayer
 10
29.1079421397385367
 20
-60.0409388646290978
 30
0.0
 40
1.5
 41
1500.0
 71
5
 72
2
  1
lookup
  7
STYLE1
 50
0.0
 73
0
 44
1.0
  0
MTEXT
  5
7B
100
AcDbEntity
100
AcDbMText
  8
PARAMS
 62
7
370
-1
  6
ByLayer
 10
29.1079421397385367
 20
-62.2909388646290978
 30
0.0
 40
1.5
 41
1500.0
 71
5
 72
2
  1
table
  7
STYLE1
 50
0.0
 73
0
 44
1.0
  0
MTEXT
  5
7C
100
AcDbEntity
100
AcDbMText
  8
PARAMS
 62
7
370
-1
  6
ByLayer
 10
-12.8920578602614722
 20
-112.1659388646290978
 30
0.0
 40
1.5
 41
1500.0
 71
5
 72
2
  1
ramp
  7
STYLE1
 50
0.0
 73
0
 44
1.0
  0
MTEXT
  5
7D
100
AcDbEntity
100
AcDbMText
  8
PARAMS
 62
7
370
-1
  6
ByLayer
 10
-12.8920578602614722
 20
-20.6659388646290978
 30
0.0
 40
1.5
 41
1500.0
 71
5
 72
2
  1
ramp
  7
STYLE1
 50
0.0
 73
0
 44
1.0
  0
MTEXT
  5
7E
100
AcDbEntity
100
AcDbMText
  8
PARAMS
 62
7
370
-1
  6
ByLayer
 10
-12.8920578602614722
 20
70.834061135370888
 30
0.0
 40
1.5
 41
1500.0
 71
5
 72
2
  1
ramp
  7
STYLE1
 50
0.0
 73
0
 44
1.0
  0
MTEXT
  5
7F
100
AcDbEntity
100
AcDbMText
  8
PARAMS
 62
7
370
-1
  6
ByLayer
 10
-45.8920578602614881
 20
-73.1659388646290978
 30
0.0
 40
1.5
 41
1500.0
 71
5
 72
2
  1
latch
  7
STYLE1
 50
0.0
 73
0
 44
1.0
  0
MTEXT
  5
80
100
AcDbEntity
100
AcDbMText
  8
PARAMS
 62
7
370
-1
  6
ByLayer
 10
-45.8920578602614881
 20
18.3340611353708951
 30
0.0
 40
1.5
 41
1500.0
 71
5
 72
2
  1
latch
  7
STYLE1
 50
0.0
 73
0
 44
1.0
  0
MTEXT
  5
81
100
AcDbEntity
100
AcDbMText
  8
PARAMS
 62
7
370
-1
  6
ByLayer
 10
-45.8920578602614881
 20
109.834061135370888
 30
0.0
 40
1.5
 41
1500.0
 71
5
 72
2
  1
latch
  7
STYLE1
 50
0.0
 73
0
 44
1.0
  0
MTEXT
  5
82
100
AcDbEntity
100
AcDbMText
  8
PARAMS
 62
7
370
-1
  6
ByLayer
 10
-3.8920578602614775
 20
-67.165938864629112
 30
0.0
 40
1.5
 41
1500.0
 71
5
 72
2
  1
counter
  7
STYLE1
 50
0.0
 73
0
 44
1.0
  0
MTEXT
  5
83
100
AcDbEntity
100
AcDbMText
  8
PARAMS
 62
7
370
-1
  6
ByLayer
 10
-3.8920578602614775
 20
24.3340611353709022
 30
0.0
 40
1.5
 41
1500.0
 71
5
 72
2
  1
counter
  7
STYLE1
 50
0.0
 73
0
 44
1.0
  0
MTEXT
  5
84
100
AcDbEntity
100
AcDbMText
  8
PARAMS
 62
7
370
-1
  6
ByLayer
 10
-3.8920578602614775
 20
115.8340611353709022
 30
0.0
 40
1.5
 41
1500.0
 71
5
 72
2
  1
counter
  7
STYLE1
 50
0.0
 73
0
 44
1.0
  0
MTEXT
  5
85
100
AcDbEntity
100
AcDbMText
  8
PARAMS
 62
7
370
-1
  6
ByLayer
 10
32.1079421397385261
 20
87.7090611353709022
 30
0.0
 40
1.5
 41
1500.0
 71
5
 72
2
  1
step/dir
  7
STYLE1
 50
0.0
 73
0
 44
1.0
  0
MTEXT
  5
86
100
AcDbEntity
100
AcDbMText
  8
PARAMS
 62
7
370
-1
  6
ByLayer
 10
32.1079421397385261
 20
85.459061135370888
 30
0.0
 40
1.5
 41
1500.0
 71
5
 72
2
  1
logic
  7
STYLE1
 50
0.0
 73
0
 44
1.0
  0
MTEXT
  5
87
100
AcDbEntity
100
AcDbMText
  8
PARAMS
 62
7
370
-1
  6
ByLayer
 10
32.1079421397385261
 20
83.2090611353709164
 30
0.0
 40
1.5
 41
1500.0
 71
5
 72
2
  1
and
  7
STYLE1
 50
0.0
 73
0
 44
1.0
  0
MTEXT
  5
88
100
AcDbEntity
100
AcDbMText
  8
PARAMS
 62
7
370
-1
  6
ByLayer
 10
32.1079421397385261
 20
80.9590611353709022
 30
0.0
 40
1.5
 41
1500.0
 71
5
 72
2
  1
timing
  7
STYLE1
 50
0.0
 73
0
 44
1.0
  0
MTEXT
  5
89
100
AcDbEntity
100
AcDbMText
  8
PARAMS
 62
7
370
-1
  6
ByLayer
 10
-24.8920578602614562
 20
-101.6659388646290978
 30
0.0
 40
1.5
 41
1500.0
 71
5
 72
2
  1
maxaccel
  7
STYLE1
 50
0.0
 73
0
 44
1.0
  0
MTEXT
  5
8A
100
AcDbEntity
100
AcDbMText
  8
PARAMS
 62
7
370
-1
  6
ByLayer
 10
-24.8920578602614562
 20
-10.1659388646290978
 30
0.0
 40
1.5
 41
1500.0
 71
5
 72
2
  1
maxaccel
  7
STYLE1
 50
0.0
 73
0
 44
1.0
  0
MTEXT
  5
8B
100
AcDbEntity
100
AcDbMText
  8
PARAMS
 62
7
370
-1
  6
ByLayer
 10
-24.8920578602614562
 20
81.3340611353709164
 30
0.0
 40
1.5
 41
1500.0
 71
5
 72
2
  1
maxaccel
  7
STYLE1
 50
0.0
 73
0
 44
1.0
  0
MTEXT
  5
8C
100
AcDbEntity
100
AcDbMText
  8
PARAMS
 62
7
370
-1
  6
ByLayer
 10
-54.8920578602614597
 20
-95.6659388646290978
 30
0.0
 40
1.5
 41
1500.0
 71
5
 72
2
  1
frequency
  7
STYLE1
 50
0.0
 73
0
 44
1.0
  0
MTEXT
  5
8D
100
AcDbEntity
100
AcDbMText
  8
PARAMS
 62
7
370
-1
  6
ByLayer
 10
-54.8920578602614597
 20
-4.1659388646291058
 30
0.0
 40
1.5
 41
1500.0
 71
5
 72
2
  1
frequency
  7
STYLE1
 50
0.0
 73
0
 44
1.0
  0
MTEXT
  5
8E
100
AcDbEntity
100
AcDbMText
  8
PARAMS
 62
7
370
-1
  6
ByLayer
 10
-54.8920578602614597
 20
87.334061135370888
 30
0.0
 40
1.5
 41
1500.0
 71
5
 72
2
  1
frequency
  7
STYLE1
 50
0.0
 73
0
 44
1.0
  0
MTEXT
  5
8F
100
AcDbEntity
100
AcDbMText
  8
PARAMS
 62
7
370
-1
  6
ByLayer
 10
3.6079421397385225
 20
94.834061135370888
 30
0.0
 40
1.5
 41
1500.0
 71
5
 72
2
  1
stepspace
  7
STYLE1
 50
0.0
 73
0
 44
1.0
  0
MTEXT
  5
90
100
AcDbEntity
100
AcDbMText
  8
PARAMS
 62
7
370
-1
  6
ByLayer
 10
3.6079421397385225
 20
90.3340611353709022
 30
0.0
 40
1.5
 41
1500.0
 71
5
 72
2
  1
dirsetup
  7
STYLE1
 50
0.0
 73
0
 44
1.0
  0
MTEXT
  5
91
100
AcDbEntity
100
AcDbMText
  8
PARAMS
 62
7
370
-1
  6
ByLayer
 10
3.6079421397385225
 20
85.8340611353709022
 30
0.0
 40
1.5
 41
1500.0
 71
5
 72
2
  1
dirhold
  7
STYLE1
 50
0.0
 73
0
 44
1.0
  0
MTEXT
  5
92
100
AcDbEntity
100
AcDbMText
  8
PARAMS
 62
7
370
-1
  6
ByLayer
 10
3.6079421397385225
 20
99.3340611353709022
 30
0.0
 40
1.5
 41
1500.0
 71
5
 72
2
  1
steplen
  7
STYLE1
 50
0.0
 73
0
 44
1.0
  0
MTEXT
  5
93
100
AcDbEntity
100
AcDbMText
  8
PARAMS
 62
7
370
-1
  6
ByLayer
 10
-24.8920578602614562
 20
-62.6659388646290978
 30
0.0
 40
1.5
 41
1500.0
 71
5
 72
2
  1
rawcounts
  7
STYLE1
 50
0.0
 73
0
 44
1.0
  0
MTEXT
  5
94
100
AcDbEntity
100
AcDbMText
  8
PARAMS
 62
7
370
-1
  6
ByLayer
 10
-24.8920578602614562
 20
28.8340611353709129
 30
0.0
 40
1.5
 41
1500.0
 71
5
 72
2
  1
rawcounts
  7
STYLE1
 50
0.0
 73
0
 44
1.0
  0
MTEXT
  5
95
100
AcDbEntity
100
AcDbMText
  8
PARAMS
 62
7
370
-1
  6
ByLayer
 10
-24.8920578602614562
 20
120.3340611353709022
 30
0.0
 40
1.5
 41
1500.0
 71
5
 72
2
  1
rawcounts
  7
STYLE1
 50
0.0
 73
0
 44
1.0
  0
MTEXT
  5
96
100
AcDbEntity
100
AcDbMText
  8
PARAMS
 62
7
370
-1
  6
ByLayer
 10
-80.3920578602614455
 20
-104.6659388646290978
 30
0.0
 40
1.5
 41
1500.0
 71
5
 72
2
  1
velocity-scale
  7
STYLE1
 50
0.0
 73
0
 44
1.0
  0
MTEXT
  5
97
100
AcDbEntity
100
AcDbMText
  8
PARAMS
 62
7
370
-1
  6
ByLayer
 10
-80.3920578602614455
 20
-13.1659388646290978
 30
0.0
 40
1.5
 41
1500.0
 71
5
 72
2
  1
velocity-scale
  7
STYLE1
 50
0.0
 73
0
 44
1.0
  0
MTEXT
  5
98
100
AcDbEntity
100
AcDbMText
  8
PARAMS
 62
7
370
-1
  6
ByLayer
 10
-80.3920578602614455
 20
78.3340611353709022
 30
0.0
 40
1.5
 41
1500.0
 71
5
 72
2
  1
velocity-scale
  7
STYLE1
 50
0.0
 73
0
 44
1.0
  0
MTEXT
  5
99
100
AcDbEntity
100
AcDbMText
  8
PARAMS
 62
7
370
-1
  6
ByLayer
 10
-56.3920578602614739
 20
-49.1659388646290978
 30
0.0
 40
1.5
 41
1500.0
 71
5
 72
2
  1
position-scale
  7
STYLE1
 50
0.0
 73
0
 44
1.0
  0
MTEXT
  5
9A
100
AcDbEntity
100
AcDbMText
  8
PARAMS
 62
7
370
-1
  6
ByLayer
 10
-56.3920578602614739
 20
42.334061135370888
 30
0.0
 40
1.5
 41
1500.0
 71
5
 72
2
  1
position-scale
  7
STYLE1
 50
0.0
 73
0
 44
1.0
  0
MTEXT
  5
9B
100
AcDbEntity
100
AcDbMText
  8
PARAMS
 62
7
370
-1
  6
ByLayer
 10
-56.3920578602614739
 20
133.834061135370888
 30
0.0
 40
1.5
 41
1500.0
 71
5
 72
2
  1
position-scale
  7
STYLE1
 50
0.0
 73
0
 44
1.0
  0
LINE
  5
9C
100
AcDbEntity
100
AcDbLine
  8
PARAMS
 62
7
370
-1
  6
ByLayer
 10
-78.8920578602614881
 20
-101.6659388646290978
 30
0.0
 11
-78.8920578602614881
 21
-98.6659388646290978
 31
0.0
  0
LINE
  5
9D
100
AcDbEntity
100
AcDbLine
  8
PARAMS
 62
7
370
-1
  6
ByLayer
 10
-78.8920578602614881
 20
-10.1659388646290978
 30
0.0
 11
-78.8920578602614881
 21
-7.1659388646290951
 31
0.0
  0
LINE
  5
9E
100
AcDbEntity
100
AcDbLine
  8
PARAMS
 62
7
370
-1
  6
ByLayer
 10
-78.8920578602614881
 20
81.3340611353709164
 30
0.0
 11
-78.8920578602614881
 21
84.3340611353709022
 31
0.0
  0
LINE
  5
9F
100
AcDbEntity
100
AcDbLine
  8
PARAMS
 62
7
370
-1
  6
ByLayer
 10
-33.8920578602614739
 20
-103.1659388646290978
 30
0.0
 11
-33.8920578602614739
 21
-100.1659388646290978
 31
0.0
  0
LINE
  5
A0
100
AcDbEntity
100
AcDbLine
  8
PARAMS
 62
7
370
-1
  6
ByLayer
 10
-33.8920578602614739
 20
-11.6659388646291049
 30
0.0
 11
-33.8920578602614739
 21
-8.6659388646291013
 31
0.0
  0
LINE
  5
A1
100
AcDbEntity
100
AcDbLine
  8
PARAMS
 62
7
370
-1
  6
ByLayer
 10
-33.8920578602614739
 20
79.834061135370888
 30
0.0
 11
-33.8920578602614739
 21
82.8340611353709022
 31
0.0
  0
LINE
  5
A2
100
AcDbEntity
100
AcDbLine
  8
PARAMS
 62
7
370
-1
  6
ByLayer
 10
-63.8920578602614739
 20
-97.1659388646290978
 30
0.0
 11
-63.8920578602614739
 21
-94.1659388646290978
 31
0.0
  0
LINE
  5
A3
100
AcDbEntity
100
AcDbLine
  8
PARAMS
 62
7
370
-1
  6
ByLayer
 10
-63.8920578602614739
 20
-5.6659388646290987
 30
0.0
 11
-63.8920578602614739
 21
-2.6659388646290969
 31
0.0
  0
LINE
  5
A4
100
AcDbEntity
100
AcDbLine
  8
PARAMS
 62
7
370
-1
  6
ByLayer
 10
-63.8920578602614739
 20
85.8340611353709022
 30
0.0
 11
-63.8920578602614739
 21
88.8340611353709164
 31
0.0
  0
LINE
  5
A5
100
AcDbEntity
100
AcDbLine
  8
PARAMS
 62
7
370
-1
  6
ByLayer
 10
-5.3920578602614722
 20
93.3340611353709022
 30
0.0
 11
-5.3920578602614722
 21
96.3340611353709164
 31
0.0
  0
LINE
  5
A6
100
AcDbEntity
100
AcDbLine
  8
PARAMS
 62
7
370
-1
  6
ByLayer
 10
-5.3920578602614722
 20
88.8340611353709164
 30
0.0
 11
-5.3920578602614722
 21
91.8340611353709022
 31
0.0
  0
LINE
  5
A7
100
AcDbEntity
100
AcDbLine
  8
PARAMS
 62
7
370
-1
  6
ByLayer
 10
-5.3920578602614722
 20
84.3340611353709022
 30
0.0
 11
-5.3920578602614722
 21
87.334061135370888
 31
0.0
  0
LINE
  5
A8
100
AcDbEntity
100
AcDbLine
  8
PARAMS
 62
7
370
-1
  6
ByLayer
 10
-5.3920578602614722
 20
97.8340611353709022
 30
0.0
 11
-5.3920578602614722
 21
100.8340611353709022
 31
0.0
  0
LINE
  5
A9
100
AcDbEntity
100
AcDbLine
  8
PARAMS
 62
7
370
-1
  6
ByLayer
 10
-33.8920578602614739
 20
-64.1659388646290978
 30
0.0
 11
-33.8920578602614739
 21
-61.1659388646290978
 31
0.0
  0
LINE
  5
AA
100
AcDbEntity
100
AcDbLine
  8
PARAMS
 62
7
370
-1
  6
ByLayer
 10
-33.8920578602614739
 20
27.3340611353708915
 30
0.0
 11
-33.8920578602614739
 21
30.3340611353709058
 31
0.0
  0
LINE
  5
AB
100
AcDbEntity
100
AcDbLine
  8
PARAMS
 62
7
370
-1
  6
ByLayer
 10
-33.8920578602614739
 20
118.8340611353709164
 30
0.0
 11
-33.8920578602614739
 21
121.8340611353709022
 31
0.0
  0
LINE
  5
AC
100
AcDbEntity
100
AcDbLine
  8
PARAMS
 62
7
370
-1
  6
ByLayer
 10
-89.3920578602614739
 20
-106.1659388646290978
 30
0.0
 11
-89.3920578602614739
 21
-103.1659388646290978
 31
0.0
  0
LINE
  5
AD
100
AcDbEntity
100
AcDbLine
  8
PARAMS
 62
7
370
-1
  6
ByLayer
 10
-89.3920578602614739
 20
-14.6659388646290942
 30
0.0
 11
-89.3920578602614739
 21
-11.6659388646291049
 31
0.0
  0
LINE
  5
AE
100
AcDbEntity
100
AcDbLine
  8
PARAMS
 62
7
370
-1
  6
ByLayer
 10
-89.3920578602614739
 20
76.8340611353709022
 30
0.0
 11
-89.3920578602614739
 21
79.834061135370888
 31
0.0
  0
LINE
  5
AF
100
AcDbEntity
100
AcDbLine
  8
PARAMS
 62
7
370
-1
  6
ByLayer
 10
-47.3920578602614597
 20
-50.6659388646290978
 30
0.0
 11
-47.3920578602614597
 21
-47.6659388646290978
 31
0.0
  0
LINE
  5
B0
100
AcDbEntity
100
AcDbLine
  8
PARAMS
 62
7
370
-1
  6
ByLayer
 10
-47.3920578602614597
 20
40.8340611353708951
 30
0.0
 11
-47.3920578602614597
 21
43.8340611353709093
 31
0.0
  0
LINE
  5
B1
100
AcDbEntity
100
AcDbLine
  8
PARAMS
 62
7
370
-1
  6
ByLayer
 10
-47.3920578602614597
 20
132.3340611353708596
 30
0.0
 11
-47.3920578602614597
 21
135.3340611353709164
 31
0.0
  0
LINE
  5
B2
100
AcDbEntity
100
AcDbLine
  8
PARAMS
 62
7
370
-1
  6
ByLayer
 10
-78.8920578602614881
 20
-98.6659388646290978
 30
0.0
 11
-60.8920578602614881
 21
-98.6659388646290978
 31
0.0
  0
LINE
  5
B3
100
AcDbEntity
100
AcDbLine
  8
PARAMS
 62
7
370
-1
  6
ByLayer
 10
-78.8920578602614881
 20
-7.1659388646290951
 30
0.0
 11
-60.8920578602614881
 21
-7.1659388646290951
 31
0.0
  0
LINE
  5
B4
100
AcDbEntity
100
AcDbLine
  8
PARAMS
 62
7
370
-1
  6
ByLayer
 10
-78.8920578602614881
 20
84.3340611353709022
 30
0.0
 11
-60.8920578602614881
 21
84.3340611353709022
 31
0.0
  0
LINE
  5
B5
100
AcDbEntity
100
AcDbLine
  8
PARAMS
 62
7
370
-1
  6
ByLayer
 10
-33.8920578602614739
 20
-100.1659388646290978
 30
0.0
 11
-15.8920578602614615
 21
-100.1659388646290978
 31
0.0
  0
LINE
  5
B6
100
AcDbEntity
100
AcDbLine
  8
PARAMS
 62
7
370
-1
  6
ByLayer
 10
-33.8920578602614739
 20
-8.6659388646291013
 30
0.0
 11
-15.8920578602614615
 21
-8.6659388646291013
 31
0.0
  0
LINE
  5
B7
100
AcDbEntity
100
AcDbLine
  8
PARAMS
 62
7
370
-1
  6
ByLayer
 10
-33.8920578602614739
 20
82.8340611353709022
 30
0.0
 11
-15.8920578602614615
 21
82.8340611353709022
 31
0.0
  0
LINE
  5
B8
100
AcDbEntity
100
AcDbLine
  8
PARAMS
 62
7
370
-1
  6
ByLayer
 10
-63.8920578602614739
 20
-94.1659388646290978
 30
0.0
 11
-45.8920578602614881
 21
-94.1659388646290978
 31
0.0
  0
LINE
  5
B9
100
AcDbEntity
100
AcDbLine
  8
PARAMS
 62
7
370
-1
  6
ByLayer
 10
-63.8920578602614739
 20
-2.6659388646290969
 30
0.0
 11
-45.8920578602614881
 21
-2.6659388646290969
 31
0.0
  0
LINE
  5
BA
100
AcDbEntity
100
AcDbLine
  8
PARAMS
 62
7
370
-1
  6
ByLayer
 10
-63.8920578602614739
 20
88.8340611353709164
 30
0.0
 11
-45.8920578602614881
 21
88.8340611353709164
 31
0.0
  0
LINE
  5
BB
100
AcDbEntity
100
AcDbLine
  8
PARAMS
 62
7
370
-1
  6
ByLayer
 10
-5.3920578602614722
 20
96.3340611353709164
 30
0.0
 11
12.6079421397385438
 21
96.3340611353709164
 31
0.0
  0
LINE
  5
BC
100
AcDbEntity
100
AcDbLine
  8
PARAMS
 62
7
370
-1
  6
ByLayer
 10
-5.3920578602614722
 20
91.8340611353709022
 30
0.0
 11
12.6079421397385438
 21
91.8340611353709022
 31
0.0
  0
LINE
  5
BD
100
AcDbEntity
100
AcDbLine
  8
PARAMS
 62
7
370
-1
  6
ByLayer
 10
-5.3920578602614722
 20
87.334061135370888
 30
0.0
 11
12.6079421397385438
 21
87.334061135370888
 31
0.0
  0
LINE
  5
BE
100
AcDbEntity
100
AcDbLine
  8
PARAMS
 62
7
370
-1
  6
ByLayer
 10
-5.3920578602614722
 20
100.8340611353709022
 30
0.0
 11
12.6079421397385438
 21
100.8340611353709022
 31
0.0
  0
LINE
  5
BF
100
AcDbEntity
100
AcDbLine
  8
PARAMS
 62
7
370
-1
  6
ByLayer
 10
-33.8920578602614739
 20
-61.1659388646290978
 30
0.0
 11
-15.8920578602614615
 21
-61.1659388646290978
 31
0.0
  0
LINE
  5
C0
100
AcDbEntity
100
AcDbLine
  8
PARAMS
 62
7
370
-1
  6
ByLayer
 10
-33.8920578602614739
 20
30.3340611353709058
 30
0.0
 11
-15.8920578602614615
 21
30.3340611353709058
 31
0.0
  0
LINE
  5
C1
100
AcDbEntity
100
AcDbLine
  8
PARAMS
 62
7
370
-1
  6
ByLayer
 10
-33.8920578602614739
 20
121.8340611353709022
 30
0.0
 11
-15.8920578602614615
 21
121.8340611353709022
 31
0.0
  0
LINE
  5
C2
100
AcDbEntity
100
AcDbLine
  8
PARAMS
 62
7
370
-1
  6
ByLayer
 10
-89.3920578602614739
 20
-103.1659388646290978
 30
0.0
 11
-71.3920578602614739
 21
-103.1659388646290978
 31
0.0
  0
LINE
  5
C3
100
AcDbEntity
100
AcDbLine
  8
PARAMS
 62
7
370
-1
  6
ByLayer
 10
-89.3920578602614739
 20
-11.6659388646291049
 30
0.0
 11
-71.3920578602614739
 21
-11.6659388646291049
 31
0.0
  0
LINE
  5
C4
100
AcDbEntity
100
AcDbLine
  8
PARAMS
 62
7
370
-1
  6
ByLayer
 10
-89.3920578602614739
 20
79.834061135370888
 30
0.0
 11
-71.3920578602614739
 21
79.834061135370888
 31
0.0
  0
LINE
  5
C5
100
AcDbEntity
100
AcDbLine
  8
PARAMS
 62
7
370
-1
  6
ByLayer
 10
-47.3920578602614597
 20
-47.6659388646290978
 30
0.0
 11
-65.3920578602614455
 21
-47.6659388646290978
 31
0.0
  0
LINE
  5
C6
100
AcDbEntity
100
AcDbLine
  8
PARAMS
 62
7
370
-1
  6
ByLayer
 10
-47.3920578602614597
 20
43.8340611353709093
 30
0.0
 11
-65.3920578602614455
 21
43.8340611353709093
 31
0.0
  0
LINE
  5
C7
100
AcDbEntity
100
AcDbLine
  8
PARAMS
 62
7
370
-1
  6
ByLayer
 10
-47.3920578602614597
 20
135.3340611353709164
 30
0.0
 11
-65.3920578602614455
 21
135.3340611353709164
 31
0.0
  0
LINE
  5
C8
100
AcDbEntity
100
AcDbLine
  8
PARAMS
 62
7
370
-1
  6
ByLayer
 10
-60.8920578602614881
 20
-98.6659388646290978
 30
0.0
 11
-60.8920578602614881
 21
-101.6659388646290978
 31
0.0
  0
LINE
  5
C9
100
AcDbEntity
100
AcDbLine
  8
PARAMS
 62
7
370
-1
  6
ByLayer
 10
-60.8920578602614881
 20
-7.1659388646290951
 30
0.0
 11
-60.8920578602614881
 21
-10.1659388646290978
 31
0.0
  0
LINE
  5
CA
100
AcDbEntity
100
AcDbLine
  8
PARAMS
 62
7
370
-1
  6
ByLayer
 10
-60.8920578602614881
 20
84.3340611353709022
 30
0.0
 11
-60.8920578602614881
 21
81.3340611353709164
 31
0.0
  0
LINE
  5
CB
100
AcDbEntity
100
AcDbLine
  8
PARAMS
 62
7
370
-1
  6
ByLayer
 10
-15.8920578602614615
 20
-100.1659388646290978
 30
0.0
 11
-15.8920578602614615
 21
-103.1659388646290978
 31
0.0
  0
LINE
  5
CC
100
AcDbEntity
100
AcDbLine
  8
PARAMS
 62
7
370
-1
  6
ByLayer
 10
-15.8920578602614615
 20
-8.6659388646291013
 30
0.0
 11
-15.8920578602614615
 21
-11.6659388646291049
 31
0.0
  0
LINE
  5
CD
100
AcDbEntity
100
AcDbLine
  8
PARAMS
 62
7
370
-1
  6
ByLayer
 10
-15.8920578602614615
 20
82.8340611353709022
 30
0.0
 11
-15.8920578602614615
 21
79.834061135370888
 31
0.0
  0
LINE
  5
CE
100
AcDbEntity
100
AcDbLine
  8
PARAMS
 62
7
370
-1
  6
ByLayer
 10
-45.8920578602614881
 20
-94.1659388646290978
 30
0.0
 11
-45.8920578602614881
 21
-97.1659388646290978
 31
0.0
  0
LINE
  5
CF
100
AcDbEntity
100
AcDbLine
  8
PARAMS
 62
7
370
-1
  6
ByLayer
 10
-45.8920578602614881
 20
-2.6659388646290969
 30
0.0
 11
-45.8920578602614881
 21
-5.6659388646290987
 31
0.0
  0
LINE
  5
D0
100
AcDbEntity
100
AcDbLine
  8
PARAMS
 62
7
370
-1
  6
ByLayer
 10
-45.8920578602614881
 20
88.8340611353709164
 30
0.0
 11
-45.8920578602614881
 21
85.8340611353709022
 31
0.0
  0
LINE
  5
D1
100
AcDbEntity
100
AcDbLine
  8
PARAMS
 62
7
370
-1
  6
ByLayer
 10
12.6079421397385438
 20
96.3340611353709164
 30
0.0
 11
12.6079421397385438
 21
93.3340611353709022
 31
0.0
  0
LINE
  5
D2
100
AcDbEntity
100
AcDbLine
  8
PARAMS
 62
7
370
-1
  6
ByLayer
 10
12.6079421397385438
 20
91.8340611353709022
 30
0.0
 11
12.6079421397385438
 21
88.8340611353709164
 31
0.0
  0
LINE
  5
D3
100
AcDbEntity
100
AcDbLine
  8
PARAMS
 62
7
370
-1
  6
ByLayer
 10
12.6079421397385438
 20
87.334061135370888
 30
0.0
 11
12.6079421397385438
 21
84.3340611353709022
 31
0.0
  0
LINE
  5
D4
100
AcDbEntity
100
AcDbLine
  8
PARAMS
 62
7
370
-1
  6
ByLayer
 10
12.6079421397385438
 20
100.8340611353709022
 30
0.0
 11
12.6079421397385438
 21
97.8340611353709022
 31
0.0
  0
LINE
  5
D5
100
AcDbEntity
100
AcDbLine
  8
PARAMS
 62
7
370
-1
  6
ByLayer
 10
-15.8920578602614615
 20
-61.1659388646290978
 30
0.0
 11
-15.8920578602614615
 21
-64.1659388646290978
 31
0.0
  0
LINE
  5
D6
100
AcDbEntity
100
AcDbLine
  8
PARAMS
 62
7
370
-1
  6
ByLayer
 10
-15.8920578602614615
 20
30.3340611353709058
 30
0.0
 11
-15.8920578602614615
 21
27.3340611353708915
 31
0.0
  0
LINE
  5
D7
100
AcDbEntity
100
AcDbLine
  8
PARAMS
 62
7
370
-1
  6
ByLayer
 10
-15.8920578602614615
 20
121.8340611353709022
 30
0.0
 11
-15.8920578602614615
 21
118.8340611353709164
 31
0.0
  0
LINE
  5
D8
100
AcDbEntity
100
AcDbLine
  8
PARAMS
 62
7
370
-1
  6
ByLayer
 10
-71.3920578602614739
 20
-103.1659388646290978
 30
0.0
 11
-71.3920578602614739
 21
-106.1659388646290978
 31
0.0
  0
LINE
  5
D9
100
AcDbEntity
100
AcDbLine
  8
PARAMS
 62
7
370
-1
  6
ByLayer
 10
-71.3920578602614739
 20
-11.6659388646291049
 30
0.0
 11
-71.3920578602614739
 21
-14.6659388646290942
 31
0.0
  0
LINE
  5
DA
100
AcDbEntity
100
AcDbLine
  8
PARAMS
 62
7
370
-1
  6
ByLayer
 10
-71.3920578602614739
 20
79.834061135370888
 30
0.0
 11
-71.3920578602614739
 21
76.8340611353709022
 31
0.0
  0
LINE
  5
DB
100
AcDbEntity
100
AcDbLine
  8
PARAMS
 62
7
370
-1
  6
ByLayer
 10
-65.3920578602614455
 20
-47.6659388646290978
 30
0.0
 11
-65.3920578602614455
 21
-50.6659388646290978
 31
0.0
  0
LINE
  5
DC
100
AcDbEntity
100
AcDbLine
  8
PARAMS
 62
7
370
-1
  6
ByLayer
 10
-65.3920578602614455
 20
43.8340611353709093
 30
0.0
 11
-65.3920578602614455
 21
40.8340611353708951
 31
0.0
  0
LINE
  5
DD
100
AcDbEntity
100
AcDbLine
  8
PARAMS
 62
7
370
-1
  6
ByLayer
 10
-65.3920578602614455
 20
135.3340611353709164
 30
0.0
 11
-65.3920578602614455
 21
132.3340611353708596
 31
0.0
  0
LINE
  5
DE
100
AcDbEntity
100
AcDbLine
  8
PARAMS
 62
7
370
-1
  6
ByLayer
 10
-60.8920578602614881
 20
-101.6659388646290978
 30
0.0
 11
-78.8920578602614881
 21
-101.6659388646290978
 31
0.0
  0
LINE
  5
DF
100
AcDbEntity
100
AcDbLine
  8
PARAMS
 62
7
370
-1
  6
ByLayer
 10
-60.8920578602614881
 20
-10.1659388646290978
 30
0.0
 11
-78.8920578602614881
 21
-10.1659388646290978
 31
0.0
  0
LINE
  5
E0
100
AcDbEntity
100
AcDbLine
  8
PARAMS
 62
7
370
-1
  6
ByLayer
 10
-60.8920578602614881
 20
81.3340611353709164
 30
0.0
 11
-78.8920578602614881
 21
81.3340611353709164
 31
0.0
  0
LINE
  5
E1
100
AcDbEntity
100
AcDbLine
  8
PARAMS
 62
7
370
-1
  6
ByLayer
 10
-15.8920578602614615
 20
-103.1659388646290978
 30
0.0
 11
-33.8920578602614739
 21
-103.1659388646290978
 31
0.0
  0
LINE
  5
E2
100
AcDbEntity
100
AcDbLine
  8
PARAMS
 62
7
370
-1
  6
ByLayer
 10
-15.8920578602614615
 20
-11.6659388646291049
 30
0.0
 11
-33.8920578602614739
 21
-11.6659388646291049
 31
0.0
  0
LINE
  5
E3
100
AcDbEntity
100
AcDbLine
  8
PARAMS
 62
7
370
-1
  6
ByLayer
 10
-15.8920578602614615
 20
79.834061135370888
 30
0.0
 11
-33.8920578602614739
 21
79.834061135370888
 31
0.0
  0
LINE
  5
E4
100
AcDbEntity
100
AcDbLine
  8
PARAMS
 62
7
370
-1
  6
ByLayer
 10
-45.8920578602614881
 20
-97.1659388646290978
 30
0.0
 11
-63.8920578602614739
 21
-97.1659388646290978
 31
0.0
  0
LINE
  5
E5
100
AcDbEntity
100
AcDbLine
  8
PARAMS
 62
7
370
-1
  6
ByLayer
 10
-45.8920578602614881
 20
-5.6659388646290987
 30
0.0
 11
-63.8920578602614739
 21
-5.6659388646290987
 31
0.0
  0
LINE
  5
E6
100
AcDbEntity
100
AcDbLine
  8
PARAMS
 62
7
370
-1
  6
ByLayer
 10
-45.8920578602614881
 20
85.8340611353709022
 30
0.0
 11
-63.8920578602614739
 21
85.8340611353709022
 31
0.0
  0
LINE
  5
E7
100
AcDbEntity
100
AcDbLine
  8
PARAMS
 62
7
370
-1
  6
ByLayer
 10
12.6079421397385438
 20
93.3340611353709022
 30
0.0
 11
-5.3920578602614722
 21
93.3340611353709022
 31
0.0
  0
LINE
  5
E8
100
AcDbEntity
100
AcDbLine
  8
PARAMS
 62
7
370
-1
  6
ByLayer
 10
12.6079421397385438
 20
88.8340611353709164
 30
0.0
 11
-5.3920578602614722
 21
88.8340611353709164
 31
0.0
  0
LINE
  5
E9
100
AcDbEntity
100
AcDbLine
  8
PARAMS
 62
7
370
-1
  6
ByLayer
 10
12.6079421397385438
 20
84.3340611353709022
 30
0.0
 11
-5.3920578602614722
 21
84.3340611353709022
 31
0.0
  0
LINE
  5
EA
100
AcDbEntity
100
AcDbLine
  8
PARAMS
 62
7
370
-1
  6
ByLayer
 10
12.6079421397385438
 20
97.8340611353709022
 30
0.0
 11
-5.3920578602614722
 21
97.8340611353709022
 31
0.0
  0
LINE
  5
EB
100
AcDbEntity
100
AcDbLine
  8
PARAMS
 62
7
370
-1
  6
ByLayer
 10
-15.8920578602614615
 20
-64.1659388646290978
 30
0.0
 11
-33.8920578602614739
 21
-64.1659388646290978
 31
0.0
  0
LINE
  5
EC
100
AcDbEntity
100
AcDbLine
  8
PARAMS
 62
7
370
-1
  6
ByLayer
 10
-15.8920578602614615
 20
27.3340611353708915
 30
0.0
 11
-33.8920578602614739
 21
27.3340611353708915
 31
0.0
  0
LINE
  5
ED
100
AcDbEntity
100
AcDbLine
  8
PARAMS
 62
7
370
-1
  6
ByLayer
 10
-15.8920578602614615
 20
118.8340611353709164
 30
0.0
 11
-33.8920578602614739
 21
118.8340611353709164
 31
0.0
  0
LINE
  5
EE
100
AcDbEntity
100
AcDbLine
  8
PARAMS
 62
7
370
-1
  6
ByLayer
 10
-71.3920578602614739
 20
-106.1659388646290978
 30
0.0
 11
-89.3920578602614739
 21
-106.1659388646290978
 31
0.0
  0
LINE
  5
EF
100
AcDbEntity
100
AcDbLine
  8
PARAMS
 62
7
370
-1
  6
ByLayer
 10
-71.3920578602614739
 20
-14.6659388646290942
 30
0.0
 11
-89.3920578602614739
 21
-14.6659388646290942
 31
0.0
  0
LINE
  5
F0
100
AcDbEntity
100
AcDbLine
  8
PARAMS
 62
7
370
-1
  6
ByLayer
 10
-71.3920578602614739
 20
76.8340611353709022
 30
0.0
 11
-89.3920578602614739
 21
76.8340611353709022
 31
0.0
  0
LINE
  5
F1
100
AcDbEntity
100
AcDbLine
  8
PARAMS
 62
7
370
-1
  6
ByLayer
 10
-65.3920578602614455
 20
-50.6659388646290978
 30
0.0
 11
-47.3920578602614597
 21
-50.6659388646290978
 31
0.0
  0
LINE
  5
F2
100
AcDbEntity
100
AcDbLine
  8
PARAMS
 62
7
370
-1
  6
ByLayer
 10
-65.3920578602614455
 20
40.8340611353708951
 30
0.0
 11
-47.3920578602614597
 21
40.8340611353708951
 31
0.0
  0
LINE
  5
F3
100
AcDbEntity
100
AcDbLine
  8
PARAMS
 62
7
370
-1
  6
ByLayer
 10
-65.3920578602614455
 20
132.3340611353708596
 30
0.0
 11
-47.3920578602614597
 21
132.3340611353708596
 31
0.0
  0
LWPOLYLINE
  5
F4
  8
STANDARD
 62
7
370
-1
  6
ByLayer
100
AcDbEntity
100
AcDbPolyline
 90
5
 70
1
 10
-2.3920578602614562
 20
-116.6659388646290978
 10
-2.3920578602614562
 20
-107.6659388646290978
 10
9.6079421397385296
 20
-107.6659388646290978
 10
9.6079421397385296
 20
-116.6659388646290978
 10
-2.3920578602614562
 20
-116.6659388646290978
  0
LWPOLYLINE
  5
F5
  8
STANDARD
 62
7
370
-1
  6
ByLayer
100
AcDbEntity
100
AcDbPolyline
 90
5
 70
1
 10
-2.3920578602614562
 20
-25.1659388646290978
 10
-2.3920578602614562
 20
-16.1659388646291013
 10
9.6079421397385296
 20
-16.1659388646291013
 10
9.6079421397385296
 20
-25.1659388646290978
 10
-2.3920578602614562
 20
-25.1659388646290978
  0
LWPOLYLINE
  5
F6
  8
STANDARD
 62
7
370
-1
  6
ByLayer
100
AcDbEntity
100
AcDbPolyline
 90
5
 70
1
 10
-2.3920578602614562
 20
66.3340611353709022
 10
-2.3920578602614562
 20
75.3340611353709022
 10
9.6079421397385296
 20
75.3340611353709022
 10
9.6079421397385296
 20
66.3340611353709022
 10
-2.3920578602614562
 20
66.3340611353709022
  0
LWPOLYLINE
  5
F7
  8
STANDARD
 62
7
370
-1
  6
ByLayer
100
AcDbEntity
100
AcDbPolyline
 90
5
 70
1
 10
-17.3920578602614562
 20
-116.6659388646290978
 10
-17.3920578602614562
 20
-107.6659388646290978
 10
-8.3920578602614615
 20
-107.6659388646290978
 10
-8.3920578602614615
 20
-116.6659388646290978
 10
-17.3920578602614562
 20
-116.6659388646290978
  0
LWPOLYLINE
  5
F8
  8
STANDARD
 62
7
370
-1
  6
ByLayer
100
AcDbEntity
100
AcDbPolyline
 90
5
 70
1
 10
-17.3920578602614562
 20
-25.1659388646290978
 10
-17.3920578602614562
 20
-16.1659388646291013
 10
-8.3920578602614615
 20
-16.1659388646291013
 10
-8.3920578602614615
 20
-25.1659388646290978
 10
-17.3920578602614562
 20
-25.1659388646290978
  0
LWPOLYLINE
  5
F9
  8
STANDARD
 62
7
370
-1
  6
ByLayer
100
AcDbEntity
100
AcDbPolyline
 90
5
 70
1
 10
-17.3920578602614562
 20
66.3340611353709022
 10
-17.3920578602614562
 20
75.3340611353709022
 10
-8.3920578602614615
 20
75.3340611353709022
 10
-8.3920578602614615
 20
66.3340611353709022
 10
-17.3920578602614562
 20
66.3340611353709022
  0
LWPOLYLINE
  5
FA
  8
STANDARD
 62
7
370
-1
  6
ByLayer
100
AcDbEntity
100
AcDbPolyline
 90
5
 70
1
 10
-62.3920578602614597
 20
-116.6659388646290978
 10
-62.3920578602614597
 20
-107.6659388646290978
 10
-53.3920578602614881
 20
-107.6659388646290978
 10
-53.3920578602614881
 20
-116.6659388646290978
 10
-62.3920578602614597
 20
-116.6659388646290978
  0
LWPOLYLINE
  5
FB
  8
STANDARD
 62
7
370
-1
  6
ByLayer
100
AcDbEntity
100
AcDbPolyline
 90
5
 70
1
 10
-62.3920578602614597
 20
-25.1659388646290978
 10
-62.3920578602614597
 20
-16.1659388646291013
 10
-53.3920578602614881
 20
-16.1659388646291013
 10
-53.3920578602614881
 20
-25.1659388646290978
 10
-62.3920578602614597
 20
-25.1659388646290978
  0
LWPOLYLINE
  5
FC
  8
STANDARD
 62
7
370
-1
  6
ByLayer
100
AcDbEntity
100
AcDbPolyline
 90
5
 70
1
 10
-62.3920578602614597
 20
66.3340611353709022
 10
-62.3920578602614597
 20
75.3340611353709022
 10
-53.3920578602614881
 20
75.3340611353709022
 10
-53.3920578602614881
 20
66.3340611353709022
 10
-62.3920578602614597
 20
66.3340611353709022
  0
LWPOLYLINE
  5
FD
  8
STANDARD
 62
7
370
-1
  6
ByLayer
100
AcDbEntity
100
AcDbPolyline
 90
5
 70
1
 10
-50.3920578602614455
 20
-77.6659388646290978
 10
-50.3920578602614455
 20
-68.6659388646290978
 10
-41.3920578602614739
 20
-68.6659388646290978
 10
-41.3920578602614739
 20
-77.6659388646290978
 10
-50.3920578602614455
 20
-77.6659388646290978
  0
LWPOLYLINE
  5
FE
  8
STANDARD
 62
7
370
-1
  6
ByLayer
100
AcDbEntity
100
AcDbPolyline
 90
5
 70
1
 10
-50.3920578602614455
 20
13.8340611353708987
 10
-50.3920578602614455
 20
22.8340611353709058
 10
-41.3920578602614739
 20
22.8340611353709058
 10
-41.3920578602614739
 20
13.8340611353708987
 10
-50.3920578602614455
 20
13.8340611353708987
  0
LWPOLYLINE
  5
FF
  8
STANDARD
 62
7
370
-1
  6
ByLayer
100
AcDbEntity
100
AcDbPolyline
 90
5
 70
1
 10
-50.3920578602614455
 20
105.3340611353709022
 10
-50.3920578602614455
 20
114.3340611353709022
 10
-41.3920578602614739
 20
114.3340611353709022
 10
-41.3920578602614739
 20
105.3340611353709022
 10
-50.3920578602614455
 20
105.3340611353709022
  0
LWPOLYLINE
  5
100
  8
STANDARD
 62
7
370
-1
  6
ByLayer
100
AcDbEntity
100
AcDbPolyline
 90
5
 70
1
 10
11.1079421397385225
 20
-65.6659388646290978
 10
11.1079421397385225
 20
-56.6659388646290978
 10
20.1079421397385438
 20
-56.6659388646290978
 10
20.1079421397385438
 20
-65.6659388646290978
 10
11.1079421397385225
 20
-65.6659388646290978
  0
LWPOLYLINE
  5
101
  8
STANDARD
 62
7
370
-1
  6
ByLayer
100
AcDbEntity
100
AcDbPolyline
 90
5
 70
1
 10
24.6079421397385296
 20
-65.6659388646290978
 10
24.6079421397385296
 20
-56.6659388646290978
 10
33.6079421397385261
 20
-56.6659388646290978
 10
33.6079421397385261
 20
-65.6659388646290978
 10
24.6079421397385296
 20
-65.6659388646290978
  0
LWPOLYLINE
  5
102
  8
STANDARD
 62
7
370
-1
  6
ByLayer
100
AcDbEntity
100
AcDbPolyline
 90
5
 70
1
 10
-8.3920578602614615
 20
-77.6659388646290978
 10
-8.3920578602614615
 20
-68.6659388646290978
 10
0.6079421397385332
 20
-68.6659388646290978
 10
0.6079421397385332
 20
-77.6659388646290978
 10
-8.3920578602614615
 20
-77.6659388646290978
  0
LWPOLYLINE
  5
103
  8
STANDARD
 62
7
370
-1
  6
ByLayer
100
AcDbEntity
100
AcDbPolyline
 90
5
 70
1
 10
-8.3920578602614615
 20
13.8340611353708987
 10
-8.3920578602614615
 20
22.8340611353709058
 10
0.6079421397385332
 20
22.8340611353709058
 10
0.6079421397385332
 20
13.8340611353708987
 10
-8.3920578602614615
 20
13.8340611353708987
  0
LWPOLYLINE
  5
104
  8
STANDARD
 62
7
370
-1
  6
ByLayer
100
AcDbEntity
100
AcDbPolyline
 90
5
 70
1
 10
-8.3920578602614615
 20
105.3340611353709022
 10
-8.3920578602614615
 20
114.3340611353709022
 10
0.6079421397385332
 20
114.3340611353709022
 10
0.6079421397385332
 20
105.3340611353709022
 10
-8.3920578602614615
 20
105.3340611353709022
  0
LWPOLYLINE
  5
105
  8
STANDARD
 62
7
370
-1
  6
ByLayer
100
AcDbEntity
100
AcDbPolyline
 90
5
 70
1
 10
27.6079421397385438
 20
78.3340611353709022
 10
27.6079421397385438
 20
90.3340611353709022
 10
36.6079421397385403
 20
90.3340611353709022
 10
36.6079421397385403
 20
78.3340611353709022
 10
27.6079421397385438
 20
78.3340611353709022
  0
LINE
  5
106
100
AcDbEntity
100
AcDbLine
  8
STANDARD
 62
7
370
-1
  6
CONTINUOUS
 10
-62.3920578602614597
 20
-112.1659388646290978
 30
0.0
 11
-53.3920578602614881
 21
-112.1659388646290978
 31
0.0
  0
LINE
  5
107
100
AcDbEntity
100
AcDbLine
  8
STANDARD
 62
7
370
-1
  6
CONTINUOUS
 10
-62.3920578602614597
 20
-20.6659388646290978
 30
0.0
 11
-53.3920578602614881
 21
-20.6659388646290978
 31
0.0
  0
LINE
  5
108
100
AcDbEntity
100
AcDbLine
  8
STANDARD
 62
7
370
-1
  6
CONTINUOUS
 10
-62.3920578602614597
 20
70.834061135370888
 30
0.0
 11
-53.3920578602614881
 21
70.834061135370888
 31
0.0
  0
LINE
  5
109
100
AcDbEntity
100
AcDbLine
  8
STANDARD
 62
7
370
-1
  6
CONTINUOUS
 10
-57.8920578602614455
 20
-107.6659388646290978
 30
0.0
 11
-57.8920578602614455
 21
-116.6659388646290978
 31
0.0
  0
LINE
  5
10A
100
AcDbEntity
100
AcDbLine
  8
STANDARD
 62
7
370
-1
  6
CONTINUOUS
 10
-57.8920578602614455
 20
-16.1659388646291013
 30
0.0
 11
-57.8920578602614455
 21
-25.1659388646290978
 31
0.0
  0
LINE
  5
10B
100
AcDbEntity
100
AcDbLine
  8
STANDARD
 62
7
370
-1
  6
CONTINUOUS
 10
-57.8920578602614455
 20
75.3340611353709022
 30
0.0
 11
-57.8920578602614455
 21
66.3340611353709022
 31
0.0
  0
LINE
  5
10C
100
AcDbEntity
100
AcDbLine
  8
STANDARD
 62
7
370
-1
  6
ByLayer
 10
-62.3920578602614597
 20
-115.1659388646290978
 30
0.0
 11
-60.8920578602614881
 21
-115.1659388646290978
 31
0.0
  0
LINE
  5
10D
100
AcDbEntity
100
AcDbLine
  8
STANDARD
 62
7
370
-1
  6
ByLayer
 10
-62.3920578602614597
 20
-23.6659388646291013
 30
0.0
 11
-60.8920578602614881
 21
-23.6659388646291013
 31
0.0
  0
LINE
  5
10E
100
AcDbEntity
100
AcDbLine
  8
STANDARD
 62
7
370
-1
  6
ByLayer
 10
-62.3920578602614597
 20
67.8340611353709022
 30
0.0
 11
-60.8920578602614881
 21
67.8340611353709022
 31
0.0
  0
LINE
  5
10F
100
AcDbEntity
100
AcDbLine
  8
STANDARD
 62
7
370
-1
  6
ByLayer
 10
-60.8920578602614881
 20
-115.1659388646290978
 30
0.0
 11
-54.8920578602614597
 21
-109.1659388646290978
 31
0.0
  0
LINE
  5
110
100
AcDbEntity
100
AcDbLine
  8
STANDARD
 62
7
370
-1
  6
ByLayer
 10
-60.8920578602614881
 20
-23.6659388646291013
 30
0.0
 11
-54.8920578602614597
 21
-17.6659388646290978
 31
0.0
  0
LINE
  5
111
100
AcDbEntity
100
AcDbLine
  8
STANDARD
 62
7
370
-1
  6
ByLayer
 10
-60.8920578602614881
 20
67.8340611353709022
 30
0.0
 11
-54.8920578602614597
 21
73.8340611353709164
 31
0.0
  0
LINE
  5
112
100
AcDbEntity
100
AcDbLine
  8
STANDARD
 62
7
370
-1
  6
ByLayer
 10
-54.8920578602614597
 20
-109.1659388646290978
 30
0.0
 11
-53.3920578602614881
 21
-109.1659388646290978
 31
0.0
  0
LINE
  5
113
100
AcDbEntity
100
AcDbLine
  8
STANDARD
 62
7
370
-1
  6
ByLayer
 10
-54.8920578602614597
 20
-17.6659388646290978
 30
0.0
 11
-53.3920578602614881
 21
-17.6659388646290978
 31
0.0
  0
LINE
  5
114
100
AcDbEntity
100
AcDbLine
  8
STANDARD
 62
7
370
-1
  6
ByLayer
 10
-54.8920578602614597
 20
73.8340611353709164
 30
0.0
 11
-53.3920578602614881
 21
73.8340611353709164
 31
0.0
  0
LINE
  5
115
100
AcDbEntity
100
AcDbLine
  8
STANDARD
 62
7
370
-1
  6
ByLayer
 10
-60.8920578602614881
 20
-100.1659388646290978
 30
0.0
 11
-57.8920578602614455
 21
-100.1659388646290978
 31
0.0
  0
LINE
  5
116
100
AcDbEntity
100
AcDbLine
  8
STANDARD
 62
7
370
-1
  6
ByLayer
 10
-60.8920578602614881
 20
-8.6659388646291013
 30
0.0
 11
-57.8920578602614455
 21
-8.6659388646291013
 31
0.0
  0
LINE
  5
117
100
AcDbEntity
100
AcDbLine
  8
STANDARD
 62
7
370
-1
  6
ByLayer
 10
-60.8920578602614881
 20
82.8340611353709022
 30
0.0
 11
-57.8920578602614455
 21
82.8340611353709022
 31
0.0
  0
LINE
  5
118
100
AcDbEntity
100
AcDbLine
  8
STANDARD
 62
7
370
-1
  6
ByLayer
 10
-57.8920578602614455
 20
-100.1659388646290978
 30
0.0
 11
-57.8920578602614455
 21
-107.6659388646290978
 31
0.0
  0
LWPOLYLINE
  5
119
  8
STANDARD
 62
7
370
-1
  6
ByLayer
100
AcDbEntity
100
AcDbPolyline
 90
4
 70
0
 10
-57.8920578602614455
 20
-107.6659388646290978
 10
-57.6253578602614738
 20
-106.465938864629095
 10
-58.1587578602614741
 20
-106.465938864629095
 10
-57.8920578602614455
 20
-107.6659388646290978
  0
LINE
  5
11A
100
AcDbEntity
100
AcDbLine
  8
STANDARD
 62
7
370
-1
  6
ByLayer
 10
-57.8920578602614455
 20
-8.6659388646291013
 30
0.0
 11
-57.8920578602614455
 21
-16.1659388646291013
 31
0.0
  0
LWPOLYLINE
  5
11B
  8
STANDARD
 62
7
370
-1
  6
ByLayer
100
AcDbEntity
100
AcDbPolyline
 90
4
 70
0
 10
-57.8920578602614455
 20
-16.1659388646291013
 10
-57.6253578602614738
 20
-14.9659388646291021
 10
-58.1587578602614741
 20
-14.9659388646291021
 10
-57.8920578602614455
 20
-16.1659388646291013
  0
LINE
  5
11C
100
AcDbEntity
100
AcDbLine
  8
STANDARD
 62
7
370
-1
  6
ByLayer
 10
-57.8920578602614455
 20
82.8340611353709022
 30
0.0
 11
-57.8920578602614455
 21
75.3340611353709022
 31
0.0
  0
LWPOLYLINE
  5
11D
  8
STANDARD
 62
7
370
-1
  6
ByLayer
100
AcDbEntity
100
AcDbPolyline
 90
4
 70
0
 10
-57.8920578602614455
 20
75.3340611353709022
 10
-57.6253578602614738
 20
76.534061135370905
 10
-58.1587578602614741
 20
76.534061135370905
 10
-57.8920578602614455
 20
75.3340611353709022
  0
LINE
  5
11E
100
AcDbEntity
100
AcDbLine
  8
STANDARD
 62
7
370
-1
  6
ByLayer
 10
-42.8920578602614455
 20
-95.6659388646290978
 30
0.0
 11
-42.8920578602614455
 21
-112.1659388646290978
 31
0.0
  0
LINE
  5
11F
100
AcDbEntity
100
AcDbLine
  8
STANDARD
 62
7
370
-1
  6
ByLayer
 10
-42.8920578602614455
 20
-4.1659388646291058
 30
0.0
 11
-42.8920578602614455
 21
-20.6659388646290978
 31
0.0
  0
LINE
  5
120
100
AcDbEntity
100
AcDbLine
  8
STANDARD
 62
7
370
-1
  6
ByLayer
 10
-42.8920578602614455
 20
87.334061135370888
 30
0.0
 11
-42.8920578602614455
 21
70.834061135370888
 31
0.0
  0
LINE
  5
121
100
AcDbEntity
100
AcDbLine
  8
STANDARD
 62
7
370
-1
  6
ByLayer
 10
-12.8920578602614722
 20
-62.6659388646290978
 30
0.0
 11
-12.8920578602614722
 21
-73.1659388646290978
 31
0.0
  0
LINE
  5
122
100
AcDbEntity
100
AcDbLine
  8
STANDARD
 62
7
370
-1
  6
ByLayer
 10
-12.8920578602614722
 20
28.8340611353709129
 30
0.0
 11
-12.8920578602614722
 21
18.3340611353708951
 31
0.0
  0
LINE
  5
123
100
AcDbEntity
100
AcDbLine
  8
STANDARD
 62
7
370
-1
  6
ByLayer
 10
-12.8920578602614722
 20
120.3340611353709022
 30
0.0
 11
-12.8920578602614722
 21
109.834061135370888
 31
0.0
  0
LINE
  5
124
100
AcDbEntity
100
AcDbLine
  8
STANDARD
 62
7
370
-1
  6
ByLayer
 10
-68.3920578602614881
 20
-112.1659388646290978
 30
0.0
 11
-69.1420578602614455
 21
-111.4159388646290978
 31
0.0
  0
LINE
  5
125
100
AcDbEntity
100
AcDbLine
  8
STANDARD
 62
7
370
-1
  6
ByLayer
 10
-68.3920578602614881
 20
-20.6659388646290978
 30
0.0
 11
-69.1420578602614455
 21
-19.9159388646291013
 31
0.0
  0
LINE
  5
126
100
AcDbEntity
100
AcDbLine
  8
STANDARD
 62
7
370
-1
  6
ByLayer
 10
-68.3920578602614881
 20
70.834061135370888
 30
0.0
 11
-69.1420578602614455
 21
71.5840611353709022
 31
0.0
  0
LINE
  5
127
100
AcDbEntity
100
AcDbLine
  8
STANDARD
 62
7
370
-1
  6
ByLayer
 10
-68.3920578602614881
 20
-58.1659388646290978
 30
0.0
 11
-69.1420578602614455
 21
-57.4159388646290978
 31
0.0
  0
LINE
  5
128
100
AcDbEntity
100
AcDbLine
  8
STANDARD
 62
7
370
-1
  6
ByLayer
 10
-68.3920578602614881
 20
33.3340611353708951
 30
0.0
 11
-69.1420578602614455
 21
34.0840611353709022
 31
0.0
  0
LINE
  5
129
100
AcDbEntity
100
AcDbLine
  8
STANDARD
 62
7
370
-1
  6
ByLayer
 10
-68.3920578602614881
 20
124.834061135370888
 30
0.0
 11
-69.1420578602614455
 21
125.5840611353709022
 31
0.0
  0
LINE
  5
12A
100
AcDbEntity
100
AcDbLine
  8
STANDARD
 62
7
370
-1
  6
ByLayer
 10
-68.3920578602614881
 20
-112.1659388646290978
 30
0.0
 11
-69.1420578602614455
 21
-112.9159388646290978
 31
0.0
  0
LINE
  5
12B
100
AcDbEntity
100
AcDbLine
  8
STANDARD
 62
7
370
-1
  6
ByLayer
 10
-68.3920578602614881
 20
-20.6659388646290978
 30
0.0
 11
-69.1420578602614455
 21
-21.4159388646290978
 31
0.0
  0
LINE
  5
12C
100
AcDbEntity
100
AcDbLine
  8
STANDARD
 62
7
370
-1
  6
ByLayer
 10
-68.3920578602614881
 20
70.834061135370888
 30
0.0
 11
-69.1420578602614455
 21
70.0840611353709022
 31
0.0
  0
LINE
  5
12D
100
AcDbEntity
100
AcDbLine
  8
STANDARD
 62
7
370
-1
  6
ByLayer
 10
-68.3920578602614881
 20
-58.1659388646290978
 30
0.0
 11
-69.1420578602614455
 21
-58.9159388646290978
 31
0.0
  0
LINE
  5
12E
100
AcDbEntity
100
AcDbLine
  8
STANDARD
 62
7
370
-1
  6
ByLayer
 10
-68.3920578602614881
 20
33.3340611353708951
 30
0.0
 11
-69.1420578602614455
 21
32.5840611353709093
 31
0.0
  0
LINE
  5
12F
100
AcDbEntity
100
AcDbLine
  8
STANDARD
 62
7
370
-1
  6
ByLayer
 10
-68.3920578602614881
 20
124.834061135370888
 30
0.0
 11
-69.1420578602614455
 21
124.0840611353709022
 31
0.0
  0
LINE
  5
130
100
AcDbEntity
100
AcDbLine
  8
STANDARD
 62
7
370
-1
  6
ByLayer
 10
-68.3920578602614881
 20
-112.1659388646290978
 30
0.0
 11
-67.6420578602614739
 21
-112.9159388646290978
 31
0.0
  0
LINE
  5
131
100
AcDbEntity
100
AcDbLine
  8
STANDARD
 62
7
370
-1
  6
ByLayer
 10
-68.3920578602614881
 20
-20.6659388646290978
 30
0.0
 11
-67.6420578602614739
 21
-21.4159388646290978
 31
0.0
  0
LINE
  5
132
100
AcDbEntity
100
AcDbLine
  8
STANDARD
 62
7
370
-1
  6
ByLayer
 10
-68.3920578602614881
 20
70.834061135370888
 30
0.0
 11
-67.6420578602614739
 21
70.0840611353709022
 31
0.0
  0
LINE
  5
133
100
AcDbEntity
100
AcDbLine
  8
STANDARD
 62
7
370
-1
  6
ByLayer
 10
-68.3920578602614881
 20
-58.1659388646290978
 30
0.0
 11
-67.6420578602614739
 21
-58.9159388646290978
 31
0.0
  0
LINE
  5
134
100
AcDbEntity
100
AcDbLine
  8
STANDARD
 62
7
370
-1
  6
ByLayer
 10
-68.3920578602614881
 20
33.3340611353708951
 30
0.0
 11
-67.6420578602614739
 21
32.5840611353709093
 31
0.0
  0
LINE
  5
135
100
AcDbEntity
100
AcDbLine
  8
STANDARD
 62
7
370
-1
  6
ByLayer
 10
-68.3920578602614881
 20
124.834061135370888
 30
0.0
 11
-67.6420578602614739
 21
124.0840611353709022
 31
0.0
  0
LINE
  5
136
100
AcDbEntity
100
AcDbLine
  8
STANDARD
 62
7
370
-1
  6
ByLayer
 10
-68.3920578602614881
 20
-112.1659388646290978
 30
0.0
 11
-67.6420578602614739
 21
-111.4159388646290978
 31
0.0
  0
LINE
  5
137
100
AcDbEntity
100
AcDbLine
  8
STANDARD
 62
7
370
-1
  6
ByLayer
 10
-68.3920578602614881
 20
-20.6659388646290978
 30
0.0
 11
-67.6420578602614739
 21
-19.9159388646291013
 31
0.0
  0
LINE
  5
138
100
AcDbEntity
100
AcDbLine
  8
STANDARD
 62
7
370
-1
  6
ByLayer
 10
-68.3920578602614881
 20
70.834061135370888
 30
0.0
 11
-67.6420578602614739
 21
71.5840611353709022
 31
0.0
  0
LINE
  5
139
100
AcDbEntity
100
AcDbLine
  8
STANDARD
 62
7
370
-1
  6
ByLayer
 10
-68.3920578602614881
 20
-58.1659388646290978
 30
0.0
 11
-67.6420578602614739
 21
-57.4159388646290978
 31
0.0
  0
LINE
  5
13A
100
AcDbEntity
100
AcDbLine
  8
STANDARD
 62
7
370
-1
  6
ByLayer
 10
-68.3920578602614881
 20
33.3340611353708951
 30
0.0
 11
-67.6420578602614739
 21
34.0840611353709022
 31
0.0
  0
LINE
  5
13B
100
AcDbEntity
100
AcDbLine
  8
STANDARD
 62
7
370
-1
  6
ByLayer
 10
-68.3920578602614881
 20
124.834061135370888
 30
0.0
 11
-67.6420578602614739
 21
125.5840611353709022
 31
0.0
  0
CIRCLE
  5
13C
100
AcDbEntity
100
AcDbCircle
  8
STANDARD
 62
7
370
-1
  6
ByLayer
 10
-68.3920578602614881
 20
-112.1659388646290978
 30
0.0
 40
2.25
  0
CIRCLE
  5
13D
100
AcDbEntity
100
AcDbCircle
  8
STANDARD
 62
7
370
-1
  6
ByLayer
 10
-68.3920578602614881
 20
-20.6659388646290978
 30
0.0
 40
2.25
  0
CIRCLE
  5
13E
100
AcDbEntity
100
AcDbCircle
  8
STANDARD
 62
7
370
-1
  6
ByLayer
 10
-68.3920578602614881
 20
70.834061135370888
 30
0.0
 40
2.25
  0
CIRCLE
  5
13F
100
AcDbEntity
100
AcDbCircle
  8
STANDARD
 62
7
370
-1
  6
ByLayer
 10
-68.3920578602614881
 20
-58.1659388646290978
 30
0.0
 40
2.25
  0
CIRCLE
  5
140
100
AcDbEntity
100
AcDbCircle
  8
STANDARD
 62
7
370
-1
  6
ByLayer
 10
-68.3920578602614881
 20
33.3340611353708951
 30
0.0
 40
2.25
  0
CIRCLE
  5
141
100
AcDbEntity
100
AcDbCircle
  8
STANDARD
 62
7
370
-1
  6
ByLayer
 10
-68.3920578602614881
 20
124.834061135370888
 30
0.0
 40
2.25
  0
LINE
  5
142
100
AcDbEntity
100
AcDbLine
  8
STANDARD
 62
7
370
-1
  6
ByLayer
 10
-93.8920578602614881
 20
-74.665938864629112
 30
0.0
 11
-93.8920578602614881
 21
-110.6659388646290978
 31
0.0
  0
LINE
  5
143
100
AcDbEntity
100
AcDbLine
  8
STANDARD
 62
7
370
-1
  6
ByLayer
 10
-93.8920578602614881
 20
16.8340611353709022
 30
0.0
 11
-93.8920578602614881
 21
-19.1659388646291049
 31
0.0
  0
LINE
  5
144
100
AcDbEntity
100
AcDbLine
  8
STANDARD
 62
7
370
-1
  6
ByLayer
 10
-93.8920578602614881
 20
108.3340611353709022
 30
0.0
 11
-93.8920578602614881
 21
72.334061135370888
 31
0.0
  0
LINE
  5
145
100
AcDbEntity
100
AcDbLine
  8
STANDARD
 62
7
370
-1
  6
ByLayer
 10
-93.8920578602614881
 20
-59.665938864629112
 30
0.0
 11
-93.8920578602614881
 21
-71.6659388646290978
 31
0.0
  0
LINE
  5
146
100
AcDbEntity
100
AcDbLine
  8
STANDARD
 62
7
370
-1
  6
ByLayer
 10
-93.8920578602614881
 20
31.8340611353709022
 30
0.0
 11
-93.8920578602614881
 21
19.8340611353708915
 31
0.0
  0
LINE
  5
147
100
AcDbEntity
100
AcDbLine
  8
STANDARD
 62
7
370
-1
  6
ByLayer
 10
-93.8920578602614881
 20
123.3340611353709022
 30
0.0
 11
-93.8920578602614881
 21
111.3340611353709164
 31
0.0
  0
LINE
  5
148
100
AcDbEntity
100
AcDbLine
  8
STANDARD
 62
7
370
-1
  6
ByLayer
 10
-93.8920578602614881
 20
-56.6659388646290978
 30
0.0
 11
-93.8920578602614881
 21
-40.1659388646290978
 31
0.0
  0
LINE
  5
149
100
AcDbEntity
100
AcDbLine
  8
STANDARD
 62
7
370
-1
  6
ByLayer
 10
-93.8920578602614881
 20
34.834061135370888
 30
0.0
 11
-93.8920578602614881
 21
51.3340611353709093
 31
0.0
  0
LINE
  5
14A
100
AcDbEntity
100
AcDbLine
  8
STANDARD
 62
7
370
-1
  6
ByLayer
 10
-93.8920578602614881
 20
126.3340611353709164
 30
0.0
 11
-93.8920578602614881
 21
142.8340611353708596
 31
0.0
  0
LINE
  5
14B
100
AcDbEntity
100
AcDbLine
  8
STANDARD
 62
7
370
-1
  6
ByLayer
 10
-93.8920578602614881
 20
-40.1659388646290978
 30
0.0
 11
65.1079421397385403
 21
-40.1659388646290978
 31
0.0
  0
LINE
  5
14C
100
AcDbEntity
100
AcDbLine
  8
STANDARD
 62
7
370
-1
  6
ByLayer
 10
-93.8920578602614881
 20
51.3340611353709093
 30
0.0
 11
65.1079421397385403
 21
51.3340611353709093
 31
0.0
  0
LINE
  5
14D
100
AcDbEntity
100
AcDbLine
  8
STANDARD
 62
7
370
-1
  6
ByLayer
 10
-93.8920578602614881
 20
142.8340611353708596
 30
0.0
 11
65.1079421397385403
 21
142.8340611353708596
 31
0.0
  0
LINE
  5
14E
100
AcDbEntity
100
AcDbLine
  8
STANDARD
 62
7
370
-1
  6
ByLayer
 10
65.1079421397385403
 20
-58.1659388646290978
 30
0.0
 11
65.1079421397385403
 21
-59.665938864629112
 31
0.0
  0
LINE
  5
14F
100
AcDbEntity
100
AcDbLine
  8
STANDARD
 62
7
370
-1
  6
ByLayer
 10
65.1079421397385403
 20
-53.6659388646290978
 30
0.0
 11
65.1079421397385403
 21
-55.1659388646290978
 31
0.0
  0
LINE
  5
150
100
AcDbEntity
100
AcDbLine
  8
STANDARD
 62
7
370
-1
  6
ByLayer
 10
65.1079421397385403
 20
-40.1659388646290978
 30
0.0
 11
65.1079421397385403
 21
-50.6659388646290978
 31
0.0
  0
LINE
  5
151
100
AcDbEntity
100
AcDbLine
  8
STANDARD
 62
7
370
-1
  6
ByLayer
 10
65.1079421397385403
 20
51.3340611353709093
 30
0.0
 11
65.1079421397385403
 21
33.3340611353708951
 31
0.0
  0
LINE
  5
152
100
AcDbEntity
100
AcDbLine
  8
STANDARD
 62
7
370
-1
  6
ByLayer
 10
65.1079421397385403
 20
142.8340611353708596
 30
0.0
 11
65.1079421397385403
 21
115.8340611353709022
 31
0.0
  0
LINE
  5
153
100
AcDbEntity
100
AcDbLine
  8
STANDARD
 62
7
370
-1
  6
ByLayer
 10
65.1079421397385403
 20
-62.6659388646290978
 30
0.0
 11
65.1079421397385403
 21
-64.1659388646290978
 31
0.0
  0
LINE
  5
154
100
AcDbEntity
100
AcDbLine
  8
STANDARD
 62
7
370
-1
  6
ByLayer
 10
65.1079421397385403
 20
30.3340611353709058
 30
0.0
 11
65.1079421397385403
 21
25.8340611353708951
 31
0.0
  0
LINE
  5
155
100
AcDbEntity
100
AcDbLine
  8
STANDARD
 62
7
370
-1
  6
ByLayer
 10
65.1079421397385403
 20
112.8340611353709022
 30
0.0
 11
65.1079421397385403
 21
106.8340611353709022
 31
0.0
  0
LINE
  5
156
100
AcDbEntity
100
AcDbLine
  8
STANDARD
 62
7
370
-1
  6
ByLayer
 10
65.1079421397385403
 20
-71.6659388646290978
 30
0.0
 11
65.1079421397385403
 21
-127.1659388646290978
 31
0.0
  0
LINE
  5
157
100
AcDbEntity
100
AcDbLine
  8
STANDARD
 62
7
370
-1
  6
ByLayer
 10
65.1079421397385403
 20
-67.165938864629112
 30
0.0
 11
65.1079421397385403
 21
-68.6659388646290978
 31
0.0
  0
LINE
  5
158
100
AcDbEntity
100
AcDbLine
  8
STANDARD
 62
7
370
-1
  6
ByLayer
 10
65.1079421397385403
 20
22.8340611353709058
 30
0.0
 11
65.1079421397385403
 21
-35.6659388646290978
 31
0.0
  0
LINE
  5
159
100
AcDbEntity
100
AcDbLine
  8
STANDARD
 62
7
370
-1
  6
ByLayer
 10
65.1079421397385403
 20
103.8340611353709164
 30
0.0
 11
65.1079421397385403
 21
55.8340611353708951
 31
0.0
  0
LINE
  5
15A
100
AcDbEntity
100
AcDbLine
  8
STANDARD
 62
7
370
-1
  6
ByLayer
 10
65.1079421397385403
 20
-127.1659388646290978
 30
0.0
 11
-93.8920578602614881
 21
-127.1659388646290978
 31
0.0
  0
LINE
  5
15B
100
AcDbEntity
100
AcDbLine
  8
STANDARD
 62
7
370
-1
  6
ByLayer
 10
65.1079421397385403
 20
-35.6659388646290978
 30
0.0
 11
-93.8920578602614881
 21
-35.6659388646290978
 31
0.0
  0
LINE
  5
15C
100
AcDbEntity
100
AcDbLine
  8
STANDARD
 62
7
370
-1
  6
ByLayer
 10
65.1079421397385403
 20
55.8340611353708951
 30
0.0
 11
-93.8920578602614881
 21
55.8340611353708951
 31
0.0
  0
LINE
  5
15D
100
AcDbEntity
100
AcDbLine
  8
STANDARD
 62
7
370
-1
  6
ByLayer
 10
-93.8920578602614881
 20
-127.1659388646290978
 30
0.0
 11
-93.8920578602614881
 21
-113.6659388646290978
 31
0.0
  0
LINE
  5
15E
100
AcDbEntity
100
AcDbLine
  8
STANDARD
 62
7
370
-1
  6
ByLayer
 10
-93.8920578602614881
 20
-35.6659388646290978
 30
0.0
 11
-93.8920578602614881
 21
-22.1659388646290942
 31
0.0
  0
LINE
  5
15F
100
AcDbEntity
100
AcDbLine
  8
STANDARD
 62
7
370
-1
  6
ByLayer
 10
-93.8920578602614881
 20
55.8340611353708951
 30
0.0
 11
-93.8920578602614881
 21
69.3340611353709022
 31
0.0
  0
LINE
  5
160
100
AcDbEntity
100
AcDbLine
  8
STANDARD
 62
7
370
-1
  6
ByLayer
 10
-15.8920578602614615
 20
-101.6659388646290978
 30
0.0
 11
-12.8920578602614722
 21
-101.6659388646290978
 31
0.0
  0
LINE
  5
161
100
AcDbEntity
100
AcDbLine
  8
STANDARD
 62
7
370
-1
  6
ByLayer
 10
-15.8920578602614615
 20
-10.1659388646290978
 30
0.0
 11
-12.8920578602614722
 21
-10.1659388646290978
 31
0.0
  0
LINE
  5
162
100
AcDbEntity
100
AcDbLine
  8
STANDARD
 62
7
370
-1
  6
ByLayer
 10
-15.8920578602614615
 20
81.3340611353709164
 30
0.0
 11
-12.8920578602614722
 21
81.3340611353709164
 31
0.0
  0
LINE
  5
163
100
AcDbEntity
100
AcDbLine
  8
STANDARD
 62
7
370
-1
  6
ByLayer
 10
-45.8920578602614881
 20
-95.6659388646290978
 30
0.0
 11
-42.8920578602614455
 21
-95.6659388646290978
 31
0.0
  0
LWPOLYLINE
  5
164
  8
STANDARD
 62
7
370
-1
  6
ByLayer
100
AcDbEntity
100
AcDbPolyline
 90
4
 70
0
 10
-45.8920578602614881
 20
-95.6659388646290978
 10
-44.6920578602614569
 20
-95.932638864629098
 10
-44.6920578602614569
 20
-95.3992388646290976
 10
-45.8920578602614881
 20
-95.6659388646290978
  0
LINE
  5
165
100
AcDbEntity
100
AcDbLine
  8
STANDARD
 62
7
370
-1
  6
ByLayer
 10
-45.8920578602614881
 20
-4.1659388646291058
 30
0.0
 11
-42.8920578602614455
 21
-4.1659388646291058
 31
0.0
  0
LWPOLYLINE
  5
166
  8
STANDARD
 62
7
370
-1
  6
ByLayer
100
AcDbEntity
100
AcDbPolyline
 90
4
 70
0
 10
-45.8920578602614881
 20
-4.1659388646291058
 10
-44.6920578602614569
 20
-4.4326388646290935
 10
-44.6920578602614569
 20
-3.8992388646291021
 10
-45.8920578602614881
 20
-4.1659388646291058
  0
LINE
  5
167
100
AcDbEntity
100
AcDbLine
  8
STANDARD
 62
7
370
-1
  6
ByLayer
 10
-45.8920578602614881
 20
87.334061135370888
 30
0.0
 11
-42.8920578602614455
 21
87.334061135370888
 31
0.0
  0
LWPOLYLINE
  5
168
  8
STANDARD
 62
7
370
-1
  6
ByLayer
100
AcDbEntity
100
AcDbPolyline
 90
4
 70
0
 10
-45.8920578602614881
 20
87.334061135370888
 10
-44.6920578602614569
 20
87.0673611353708878
 10
-44.6920578602614569
 20
87.6007611353708882
 10
-45.8920578602614881
 20
87.334061135370888
  0
LINE
  5
169
100
AcDbEntity
100
AcDbLine
  8
STANDARD
 62
7
370
-1
  6
ByLayer
 10
-15.8920578602614615
 20
-62.6659388646290978
 30
0.0
 11
-12.8920578602614722
 21
-62.6659388646290978
 31
0.0
  0
LWPOLYLINE
  5
16A
  8
STANDARD
 62
7
370
-1
  6
ByLayer
100
AcDbEntity
100
AcDbPolyline
 90
4
 70
0
 10
-15.8920578602614615
 20
-62.6659388646290978
 10
-14.6920578602614604
 20
-62.932638864629098
 10
-14.6920578602614604
 20
-62.3992388646290976
 10
-15.8920578602614615
 20
-62.6659388646290978
  0
LINE
  5
16B
100
AcDbEntity
100
AcDbLine
  8
STANDARD
 62
7
370
-1
  6
ByLayer
 10
-15.8920578602614615
 20
28.8340611353709129
 30
0.0
 11
-12.8920578602614722
 21
28.8340611353709129
 31
0.0
  0
LWPOLYLINE
  5
16C
  8
STANDARD
 62
7
370
-1
  6
ByLayer
100
AcDbEntity
100
AcDbPolyline
 90
4
 70
0
 10
-15.8920578602614615
 20
28.8340611353709129
 10
-14.6920578602614604
 20
28.5673611353709092
 10
-14.6920578602614604
 20
29.100761135370913
 10
-15.8920578602614615
 20
28.8340611353709129
  0
LINE
  5
16D
100
AcDbEntity
100
AcDbLine
  8
STANDARD
 62
7
370
-1
  6
ByLayer
 10
-15.8920578602614615
 20
120.3340611353709022
 30
0.0
 11
-12.8920578602614722
 21
120.3340611353709022
 31
0.0
  0
LWPOLYLINE
  5
16E
  8
STANDARD
 62
7
370
-1
  6
ByLayer
100
AcDbEntity
100
AcDbPolyline
 90
4
 70
0
 10
-15.8920578602614615
 20
120.3340611353709022
 10
-14.6920578602614604
 20
120.067361135370902
 10
-14.6920578602614604
 20
120.6007611353709024
 10
-15.8920578602614615
 20
120.3340611353709022
  0
LINE
  5
16F
100
AcDbEntity
100
AcDbLine
  8
STANDARD
 62
7
370
-1
  6
ByLayer
 10
-71.3920578602614739
 20
-104.6659388646290978
 30
0.0
 11
-68.3920578602614881
 21
-104.6659388646290978
 31
0.0
  0
LINE
  5
170
100
AcDbEntity
100
AcDbLine
  8
STANDARD
 62
7
370
-1
  6
ByLayer
 10
-71.3920578602614739
 20
-13.1659388646290978
 30
0.0
 11
-68.3920578602614881
 21
-13.1659388646290978
 31
0.0
  0
LINE
  5
171
100
AcDbEntity
100
AcDbLine
  8
STANDARD
 62
7
370
-1
  6
ByLayer
 10
-71.3920578602614739
 20
78.3340611353709022
 30
0.0
 11
-68.3920578602614881
 21
78.3340611353709022
 31
0.0
  0
LINE
  5
172
100
AcDbEntity
100
AcDbLine
  8
STANDARD
 62
7
370
-1
  6
ByLayer
 10
-65.3920578602614455
 20
-49.1659388646290978
 30
0.0
 11
-68.3920578602614881
 21
-49.1659388646290978
 31
0.0
  0
LINE
  5
173
100
AcDbEntity
100
AcDbLine
  8
STANDARD
 62
7
370
-1
  6
ByLayer
 10
-65.3920578602614455
 20
42.334061135370888
 30
0.0
 11
-68.3920578602614881
 21
42.334061135370888
 31
0.0
  0
LINE
  5
174
100
AcDbEntity
100
AcDbLine
  8
STANDARD
 62
7
370
-1
  6
ByLayer
 10
-65.3920578602614455
 20
133.834061135370888
 30
0.0
 11
-68.3920578602614881
 21
133.834061135370888
 31
0.0
  0
MTEXT
  5
175
100
AcDbEntity
100
AcDbMText
  8
STANDARD
 62
7
370
-1
  6
ByLayer
 10
9.6079421397385296
 20
-110.6659388646290978
 30
0.0
 40
1.5
 41
1500.0
 71
6
 72
2
  1
up/dn
  7
STYLE1
 50
0.0
 73
0
 44
1.0
  0
MTEXT
  5
176
100
AcDbEntity
100
AcDbMText
  8
STANDARD
 62
7
370
-1
  6
ByLayer
 10
9.6079421397385296
 20
-19.1659388646291049
 30
0.0
 40
1.5
 41
1500.0
 71
6
 72
2
  1
up/dn
  7
STYLE1
 50
0.0
 73
0
 44
1.0
  0
MTEXT
  5
177
100
AcDbEntity
100
AcDbMText
  8
STANDARD
 62
7
370
-1
  6
ByLayer
 10
9.6079421397385296
 20
72.334061135370888
 30
0.0
 40
1.5
 41
1500.0
 71
6
 72
2
  1
up/dn
  7
STYLE1
 50
0.0
 73
0
 44
1.0
  0
MTEXT
  5
178
100
AcDbEntity
100
AcDbMText
  8
STANDARD
 62
7
370
-1
  6
ByLayer
 10
0.6079421397385332
 20
-71.6659388646290978
 30
0.0
 40
1.5
 41
1500.0
 71
6
 72
2
  1
up/dn
  7
STYLE1
 50
0.0
 73
0
 44
1.0
  0
MTEXT
  5
179
100
AcDbEntity
100
AcDbMText
  8
STANDARD
 62
7
370
-1
  6
ByLayer
 10
0.6079421397385332
 20
19.8340611353708915
 30
0.0
 40
1.5
 41
1500.0
 71
6
 72
2
  1
up/dn
  7
STYLE1
 50
0.0
 73
0
 44
1.0
  0
MTEXT
  5
17A
100
AcDbEntity
100
AcDbMText
  8
STANDARD
 62
7
370
-1
  6
ByLayer
 10
0.6079421397385332
 20
111.3340611353709164
 30
0.0
 40
1.5
 41
1500.0
 71
6
 72
2
  1
up/dn
  7
STYLE1
 50
0.0
 73
0
 44
1.0
  0
MTEXT
  5
17B
100
AcDbEntity
100
AcDbMText
  8
STANDARD
 62
7
370
-1
  6
ByLayer
 10
9.6079421397385296
 20
-113.6659388646290978
 30
0.0
 40
1.5
 41
1500.0
 71
6
 72
2
  1
count
  7
STYLE1
 50
0.0
 73
0
 44
1.0
  0
MTEXT
  5
17C
100
AcDbEntity
100
AcDbMText
  8
STANDARD
 62
7
370
-1
  6
ByLayer
 10
9.6079421397385296
 20
-22.1659388646290942
 30
0.0
 40
1.5
 41
1500.0
 71
6
 72
2
  1
count
  7
STYLE1
 50
0.0
 73
0
 44
1.0
  0
MTEXT
  5
17D
100
AcDbEntity
100
AcDbMText
  8
STANDARD
 62
7
370
-1
  6
ByLayer
 10
9.6079421397385296
 20
69.3340611353709022
 30
0.0
 40
1.5
 41
1500.0
 71
6
 72
2
  1
count
  7
STYLE1
 50
0.0
 73
0
 44
1.0
  0
MTEXT
  5
17E
100
AcDbEntity
100
AcDbMText
  8
STANDARD
 62
7
370
-1
  6
ByLayer
 10
0.6079421397385332
 20
-74.665938864629112
 30
0.0
 40
1.5
 41
1500.0
 71
6
 72
2
  1
count
  7
STYLE1
 50
0.0
 73
0
 44
1.0
  0
MTEXT
  5
17F
100
AcDbEntity
100
AcDbMText
  8
STANDARD
 62
7
370
-1
  6
ByLayer
 10
0.6079421397385332
 20
16.8340611353709022
 30
0.0
 40
1.5
 41
1500.0
 71
6
 72
2
  1
count
  7
STYLE1
 50
0.0
 73
0
 44
1.0
  0
MTEXT
  5
180
100
AcDbEntity
100
AcDbMText
  8
STANDARD
 62
7
370
-1
  6
ByLayer
 10
0.6079421397385332
 20
108.3340611353709022
 30
0.0
 40
1.5
 41
1500.0
 71
6
 72
2
  1
count
  7
STYLE1
 50
0.0
 73
0
 44
1.0
  0
LINE
  5
181
100
AcDbEntity
100
AcDbLine
  8
STANDARD
 62
7
370
-1
  6
ByLayer
 10
-12.8920578602614722
 20
-73.1659388646290978
 30
0.0
 11
-8.3920578602614615
 21
-73.1659388646290978
 31
0.0
  0
LWPOLYLINE
  5
182
  8
STANDARD
 62
7
370
-1
  6
ByLayer
100
AcDbEntity
100
AcDbPolyline
 90
4
 70
0
 10
-12.8920578602614722
 20
-73.1659388646290978
 10
-11.6920578602614711
 20
-73.432638864629098
 10
-11.6920578602614711
 20
-72.8992388646290976
 10
-12.8920578602614722
 20
-73.1659388646290978
  0
LINE
  5
183
100
AcDbEntity
100
AcDbLine
  8
STANDARD
 62
7
370
-1
  6
ByLayer
 10
-12.8920578602614722
 20
18.3340611353708951
 30
0.0
 11
-8.3920578602614615
 21
18.3340611353708951
 31
0.0
  0
LWPOLYLINE
  5
184
  8
STANDARD
 62
7
370
-1
  6
ByLayer
100
AcDbEntity
100
AcDbPolyline
 90
4
 70
0
 10
-12.8920578602614722
 20
18.3340611353708951
 10
-11.6920578602614711
 20
18.0673611353708949
 10
-11.6920578602614711
 20
18.6007611353708988
 10
-12.8920578602614722
 20
18.3340611353708951
  0
LINE
  5
185
100
AcDbEntity
100
AcDbLine
  8
STANDARD
 62
7
370
-1
  6
ByLayer
 10
-12.8920578602614722
 20
109.834061135370888
 30
0.0
 11
-8.3920578602614615
 21
109.834061135370888
 31
0.0
  0
LWPOLYLINE
  5
186
  8
STANDARD
 62
7
370
-1
  6
ByLayer
100
AcDbEntity
100
AcDbPolyline
 90
4
 70
0
 10
-12.8920578602614722
 20
109.834061135370888
 10
-11.6920578602614711
 20
109.5673611353708878
 10
-11.6920578602614711
 20
110.1007611353708882
 10
-12.8920578602614722
 20
109.834061135370888
  0
ARC
  5
187
100
AcDbEntity
  8
STANDARD
 62
7
370
-1
  6
ByLayer
100
AcDbCircle
 10
40.3579421397385403
 20
24.3340611353709022
 30
0.0
 40
2.25
100
AcDbArc
 50
270.0
 51
450.0
  0
LINE
  5
188
100
AcDbEntity
100
AcDbLine
  8
STANDARD
 62
7
370
-1
  6
ByLayer
 10
40.3579421397385403
 20
22.0840611353708951
 30
0.0
 11
36.6079421397385403
 21
22.0840611353708951
 31
0.0
  0
LINE
  5
189
100
AcDbEntity
100
AcDbLine
  8
STANDARD
 62
7
370
-1
  6
ByLayer
 10
36.6079421397385403
 20
22.0840611353708951
 30
0.0
 11
36.6079421397385403
 21
26.5840611353709058
 31
0.0
  0
LINE
  5
18A
100
AcDbEntity
100
AcDbLine
  8
STANDARD
 62
7
370
-1
  6
ByLayer
 10
36.6079421397385403
 20
26.5840611353709058
 30
0.0
 11
40.3579421397385403
 21
26.5840611353709058
 31
0.0
  0
ARC
  5
18B
100
AcDbEntity
  8
STANDARD
 62
7
370
-1
  6
ByLayer
100
AcDbCircle
 10
40.3579421397385403
 20
31.8340611353709022
 30
0.0
 40
2.25
100
AcDbArc
 50
270.0
 51
450.0
  0
LINE
  5
18C
100
AcDbEntity
100
AcDbLine
  8
STANDARD
 62
7
370
-1
  6
ByLayer
 10
40.3579421397385403
 20
29.5840611353708951
 30
0.0
 11
36.6079421397385403
 21
29.5840611353708951
 31
0.0
  0
LINE
  5
18D
100
AcDbEntity
100
AcDbLine
  8
STANDARD
 62
7
370
-1
  6
ByLayer
 10
36.6079421397385403
 20
29.5840611353708951
 30
0.0
 11
36.6079421397385403
 21
34.0840611353709022
 31
0.0
  0
LINE
  5
18E
100
AcDbEntity
100
AcDbLine
  8
STANDARD
 62
7
370
-1
  6
ByLayer
 10
36.6079421397385403
 20
34.0840611353709022
 30
0.0
 11
40.3579421397385403
 21
34.0840611353709022
 31
0.0
  0
LWPOLYLINE
  5
18F
  8
STANDARD
 62
7
370
-1
  6
ByLayer
100
AcDbEntity
100
AcDbPolyline
 90
2
 70
0
 10
-41.3920578602614739
 20
-73.1659388646290978
 10
-12.8920578602614722
 20
-73.1659388646290978
  0
LWPOLYLINE
  5
190
  8
STANDARD
 62
7
370
-1
  6
ByLayer
100
AcDbEntity
100
AcDbPolyline
 90
4
 70
0
 10
-41.3920578602614739
 20
-73.1659388646290978
 10
-40.1920578602614498
 20
-73.432638864629098
 10
-40.1920578602614498
 20
-72.8992388646290976
 10
-41.3920578602614739
 20
-73.1659388646290978
  0
LWPOLYLINE
  5
191
  8
STANDARD
 62
7
370
-1
  6
ByLayer
100
AcDbEntity
100
AcDbPolyline
 90
2
 70
0
 10
-41.3920578602614739
 20
18.3340611353708951
 10
-12.8920578602614722
 20
18.3340611353708951
  0
LWPOLYLINE
  5
192
  8
STANDARD
 62
7
370
-1
  6
ByLayer
100
AcDbEntity
100
AcDbPolyline
 90
4
 70
0
 10
-41.3920578602614739
 20
18.3340611353708951
 10
-40.1920578602614498
 20
18.0673611353708949
 10
-40.1920578602614498
 20
18.6007611353708988
 10
-41.3920578602614739
 20
18.3340611353708951
  0
LWPOLYLINE
  5
193
  8
STANDARD
 62
7
370
-1
  6
ByLayer
100
AcDbEntity
100
AcDbPolyline
 90
2
 70
0
 10
-41.3920578602614739
 20
109.834061135370888
 10
-12.8920578602614722
 20
109.834061135370888
  0
LWPOLYLINE
  5
194
  8
STANDARD
 62
7
370
-1
  6
ByLayer
100
AcDbEntity
100
AcDbPolyline
 90
4
 70
0
 10
-41.3920578602614739
 20
109.834061135370888
 10
-40.1920578602614498
 20
109.5673611353708878
 10
-40.1920578602614498
 20
110.1007611353708882
 10
-41.3920578602614739
 20
109.834061135370888
  0
LINE
  5
195
100
AcDbEntity
100
AcDbLine
  8
STANDARD
 62
7
370
-1
  6
ByLayer
 10
-66.1420578602614597
 20
-58.1659388646290978
 30
0.0
 11
-59.3920578602614739
 21
-58.1659388646290978
 31
0.0
  0
LWPOLYLINE
  5
196
  8
STANDARD
 62
7
370
-1
  6
ByLayer
100
AcDbEntity
100
AcDbPolyline
 90
4
 70
0
 10
-66.1420578602614597
 20
-58.1659388646290978
 10
-64.9420578602614853
 20
-58.432638864629098
 10
-64.9420578602614853
 20
-57.8992388646290976
 10
-66.1420578602614597
 20
-58.1659388646290978
  0
LINE
  5
197
100
AcDbEntity
100
AcDbLine
  8
STANDARD
 62
7
370
-1
  6
ByLayer
 10
-66.1420578602614597
 20
33.3340611353708951
 30
0.0
 11
-59.3920578602614739
 21
33.3340611353708951
 31
0.0
  0
LWPOLYLINE
  5
198
  8
STANDARD
 62
7
370
-1
  6
ByLayer
100
AcDbEntity
100
AcDbPolyline
 90
4
 70
0
 10
-66.1420578602614597
 20
33.3340611353708951
 10
-64.9420578602614853
 20
33.0673611353708949
 10
-64.9420578602614853
 20
33.6007611353708953
 10
-66.1420578602614597
 20
33.3340611353708951
  0
LINE
  5
199
100
AcDbEntity
100
AcDbLine
  8
STANDARD
 62
7
370
-1
  6
ByLayer
 10
-66.1420578602614597
 20
124.834061135370888
 30
0.0
 11
-59.3920578602614739
 21
124.834061135370888
 31
0.0
  0
LWPOLYLINE
  5
19A
  8
STANDARD
 62
7
370
-1
  6
ByLayer
100
AcDbEntity
100
AcDbPolyline
 90
4
 70
0
 10
-66.1420578602614597
 20
124.834061135370888
 10
-64.9420578602614853
 20
124.5673611353708878
 10
-64.9420578602614853
 20
125.1007611353708882
 10
-66.1420578602614597
 20
124.834061135370888
  0
LINE
  5
19B
100
AcDbEntity
100
AcDbLine
  8
STANDARD
 62
7
370
-1
  6
ByLayer
 10
-68.3920578602614881
 20
-104.6659388646290978
 30
0.0
 11
-68.3920578602614881
 21
-109.9159388646290978
 31
0.0
  0
LWPOLYLINE
  5
19C
  8
STANDARD
 62
7
370
-1
  6
ByLayer
100
AcDbEntity
100
AcDbPolyline
 90
4
 70
0
 10
-68.3920578602614881
 20
-109.9159388646290978
 10
-68.1253578602614596
 20
-108.715938864629095
 10
-68.6587578602614599
 20
-108.715938864629095
 10
-68.3920578602614881
 20
-109.9159388646290978
  0
LINE
  5
19D
100
AcDbEntity
100
AcDbLine
  8
STANDARD
 62
7
370
-1
  6
ByLayer
 10
-68.3920578602614881
 20
-13.1659388646290978
 30
0.0
 11
-68.3920578602614881
 21
-18.4159388646290942
 31
0.0
  0
LWPOLYLINE
  5
19E
  8
STANDARD
 62
7
370
-1
  6
ByLayer
100
AcDbEntity
100
AcDbPolyline
 90
4
 70
0
 10
-68.3920578602614881
 20
-18.4159388646290942
 10
-68.1253578602614596
 20
-17.2159388646290914
 10
-68.6587578602614599
 20
-17.2159388646290914
 10
-68.3920578602614881
 20
-18.4159388646290942
  0
LINE
  5
19F
100
AcDbEntity
100
AcDbLine
  8
STANDARD
 62
7
370
-1
  6
ByLayer
 10
-68.3920578602614881
 20
78.3340611353709022
 30
0.0
 11
-68.3920578602614881
 21
73.0840611353709022
 31
0.0
  0
LWPOLYLINE
  5
1A0
  8
STANDARD
 62
7
370
-1
  6
ByLayer
100
AcDbEntity
100
AcDbPolyline
 90
4
 70
0
 10
-68.3920578602614881
 20
73.0840611353709022
 10
-68.1253578602614596
 20
74.284061135370905
 10
-68.6587578602614599
 20
74.284061135370905
 10
-68.3920578602614881
 20
73.0840611353709022
  0
LINE
  5
1A1
100
AcDbEntity
100
AcDbLine
  8
STANDARD
 62
7
370
-1
  6
ByLayer
 10
-68.3920578602614881
 20
-49.1659388646290978
 30
0.0
 11
-68.3920578602614881
 21
-55.9159388646291049
 31
0.0
  0
LWPOLYLINE
  5
1A2
  8
STANDARD
 62
7
370
-1
  6
ByLayer
100
AcDbEntity
100
AcDbPolyline
 90
4
 70
0
 10
-68.3920578602614881
 20
-55.9159388646291049
 10
-68.1253578602614596
 20
-54.7159388646291092
 10
-68.6587578602614599
 20
-54.7159388646291092
 10
-68.3920578602614881
 20
-55.9159388646291049
  0
LINE
  5
1A3
100
AcDbEntity
100
AcDbLine
  8
STANDARD
 62
7
370
-1
  6
ByLayer
 10
-68.3920578602614881
 20
42.334061135370888
 30
0.0
 11
-68.3920578602614881
 21
35.5840611353709022
 31
0.0
  0
LWPOLYLINE
  5
1A4
  8
STANDARD
 62
7
370
-1
  6
ByLayer
100
AcDbEntity
100
AcDbPolyline
 90
4
 70
0
 10
-68.3920578602614881
 20
35.5840611353709022
 10
-68.1253578602614596
 20
36.7840611353708979
 10
-68.6587578602614599
 20
36.7840611353708979
 10
-68.3920578602614881
 20
35.5840611353709022
  0
LINE
  5
1A5
100
AcDbEntity
100
AcDbLine
  8
STANDARD
 62
7
370
-1
  6
ByLayer
 10
-68.3920578602614881
 20
133.834061135370888
 30
0.0
 11
-68.3920578602614881
 21
127.0840611353709022
 31
0.0
  0
LWPOLYLINE
  5
1A6
  8
STANDARD
 62
7
370
-1
  6
ByLayer
100
AcDbEntity
100
AcDbPolyline
 90
4
 70
0
 10
-68.3920578602614881
 20
127.0840611353709022
 10
-68.1253578602614596
 20
128.2840611353708766
 10
-68.6587578602614599
 20
128.2840611353708766
 10
-68.3920578602614881
 20
127.0840611353709022
  0
LINE
  5
1A7
100
AcDbEntity
100
AcDbLine
  8
STANDARD
 62
7
370
-1
  6
ByLayer
 10
-50.3920578602614455
 20
-73.1659388646290978
 30
0.0
 11
-59.3920578602614739
 21
-73.1659388646290978
 31
0.0
  0
LWPOLYLINE
  5
1A8
  8
STANDARD
 62
7
370
-1
  6
ByLayer
100
AcDbEntity
100
AcDbPolyline
 90
4
 70
0
 10
-59.3920578602614739
 20
-73.1659388646290978
 10
-58.1920578602614995
 20
-73.432638864629098
 10
-58.1920578602614995
 20
-72.8992388646290976
 10
-59.3920578602614739
 20
-73.1659388646290978
  0
LINE
  5
1A9
100
AcDbEntity
100
AcDbLine
  8
STANDARD
 62
7
370
-1
  6
ByLayer
 10
-50.3920578602614455
 20
18.3340611353708951
 30
0.0
 11
-59.3920578602614739
 21
18.3340611353708951
 31
0.0
  0
LWPOLYLINE
  5
1AA
  8
STANDARD
 62
7
370
-1
  6
ByLayer
100
AcDbEntity
100
AcDbPolyline
 90
4
 70
0
 10
-59.3920578602614739
 20
18.3340611353708951
 10
-58.1920578602614995
 20
18.0673611353708949
 10
-58.1920578602614995
 20
18.6007611353708988
 10
-59.3920578602614739
 20
18.3340611353708951
  0
LINE
  5
1AB
100
AcDbEntity
100
AcDbLine
  8
STANDARD
 62
7
370
-1
  6
ByLayer
 10
-50.3920578602614455
 20
109.834061135370888
 30
0.0
 11
-59.3920578602614739
 21
109.834061135370888
 31
0.0
  0
LWPOLYLINE
  5
1AC
  8
STANDARD
 62
7
370
-1
  6
ByLayer
100
AcDbEntity
100
AcDbPolyline
 90
4
 70
0
 10
-59.3920578602614739
 20
109.834061135370888
 10
-58.1920578602614995
 20
109.5673611353708878
 10
-58.1920578602614995
 20
110.1007611353708882
 10
-59.3920578602614739
 20
109.834061135370888
  0
LINE
  5
1AD
100
AcDbEntity
100
AcDbLine
  8
STANDARD
 62
7
370
-1
  6
ByLayer
 10
-59.3920578602614739
 20
-73.1659388646290978
 30
0.0
 11
-75.8920578602614881
 21
-73.1659388646290978
 31
0.0
  0
LWPOLYLINE
  5
1AE
  8
STANDARD
 62
7
370
-1
  6
ByLayer
100
AcDbEntity
100
AcDbPolyline
 90
4
 70
0
 10
-75.8920578602614881
 20
-73.1659388646290978
 10
-74.6920578602614569
 20
-73.432638864629098
 10
-74.6920578602614569
 20
-72.8992388646290976
 10
-75.8920578602614881
 20
-73.1659388646290978
  0
LINE
  5
1AF
100
AcDbEntity
100
AcDbLine
  8
STANDARD
 62
7
370
-1
  6
ByLayer
 10
-59.3920578602614739
 20
18.3340611353708951
 30
0.0
 11
-75.8920578602614881
 21
18.3340611353708951
 31
0.0
  0
LWPOLYLINE
  5
1B0
  8
STANDARD
 62
7
370
-1
  6
ByLayer
100
AcDbEntity
100
AcDbPolyline
 90
4
 70
0
 10
-75.8920578602614881
 20
18.3340611353708951
 10
-74.6920578602614569
 20
18.0673611353708949
 10
-74.6920578602614569
 20
18.6007611353708988
 10
-75.8920578602614881
 20
18.3340611353708951
  0
LINE
  5
1B1
100
AcDbEntity
100
AcDbLine
  8
STANDARD
 62
7
370
-1
  6
ByLayer
 10
-59.3920578602614739
 20
109.834061135370888
 30
0.0
 11
-75.8920578602614881
 21
109.834061135370888
 31
0.0
  0
LWPOLYLINE
  5
1B2
  8
STANDARD
 62
7
370
-1
  6
ByLayer
100
AcDbEntity
100
AcDbPolyline
 90
4
 70
0
 10
-75.8920578602614881
 20
109.834061135370888
 10
-74.6920578602614569
 20
109.5673611353708878
 10
-74.6920578602614569
 20
110.1007611353708882
 10
-75.8920578602614881
 20
109.834061135370888
  0
LINE
  5
1B3
100
AcDbEntity
100
AcDbLine
  8
STANDARD
 62
7
370
-1
  6
ByLayer
 10
-70.6420578602614739
 20
-58.1659388646290978
 30
0.0
 11
-75.8920578602614881
 21
-58.1659388646290978
 31
0.0
  0
LWPOLYLINE
  5
1B4
  8
STANDARD
 62
7
370
-1
  6
ByLayer
100
AcDbEntity
100
AcDbPolyline
 90
4
 70
0
 10
-75.8920578602614881
 20
-58.1659388646290978
 10
-74.6920578602614569
 20
-58.432638864629098
 10
-74.6920578602614569
 20
-57.8992388646290976
 10
-75.8920578602614881
 20
-58.1659388646290978
  0
LINE
  5
1B5
100
AcDbEntity
100
AcDbLine
  8
STANDARD
 62
7
370
-1
  6
ByLayer
 10
-70.6420578602614739
 20
33.3340611353708951
 30
0.0
 11
-75.8920578602614881
 21
33.3340611353708951
 31
0.0
  0
LWPOLYLINE
  5
1B6
  8
STANDARD
 62
7
370
-1
  6
ByLayer
100
AcDbEntity
100
AcDbPolyline
 90
4
 70
0
 10
-75.8920578602614881
 20
33.3340611353708951
 10
-74.6920578602614569
 20
33.0673611353708949
 10
-74.6920578602614569
 20
33.6007611353708953
 10
-75.8920578602614881
 20
33.3340611353708951
  0
LINE
  5
1B7
100
AcDbEntity
100
AcDbLine
  8
STANDARD
 62
7
370
-1
  6
ByLayer
 10
-70.6420578602614739
 20
124.834061135370888
 30
0.0
 11
-75.8920578602614881
 21
124.834061135370888
 31
0.0
  0
LWPOLYLINE
  5
1B8
  8
STANDARD
 62
7
370
-1
  6
ByLayer
100
AcDbEntity
100
AcDbPolyline
 90
4
 70
0
 10
-75.8920578602614881
 20
124.834061135370888
 10
-74.6920578602614569
 20
124.5673611353708878
 10
-74.6920578602614569
 20
125.1007611353708882
 10
-75.8920578602614881
 20
124.834061135370888
  0
LINE
  5
1B9
100
AcDbEntity
100
AcDbLine
  8
STANDARD
 62
7
370
-1
  6
ByLayer
 10
-59.3920578602614739
 20
-58.1659388646290978
 30
0.0
 11
-59.3920578602614739
 21
-73.1659388646290978
 31
0.0
  0
LINE
  5
1BA
100
AcDbEntity
100
AcDbLine
  8
STANDARD
 62
7
370
-1
  6
ByLayer
 10
-59.3920578602614739
 20
33.3340611353708951
 30
0.0
 11
-59.3920578602614739
 21
18.3340611353708951
 31
0.0
  0
LINE
  5
1BB
100
AcDbEntity
100
AcDbLine
  8
STANDARD
 62
7
370
-1
  6
ByLayer
 10
-59.3920578602614739
 20
124.834061135370888
 30
0.0
 11
-59.3920578602614739
 21
109.834061135370888
 31
0.0
  0
LINE
  5
1BC
100
AcDbEntity
100
AcDbLine
  8
STANDARD
 62
7
370
-1
  6
CONTINUOUS
 10
-36.8920578602614668
 20
-40.1659388646290978
 30
0.0
 11
-36.8920578602614668
 21
-127.1659388646290978
 31
0.0
  0
LINE
  5
1BD
100
AcDbEntity
100
AcDbLine
  8
STANDARD
 62
7
370
-1
  6
CONTINUOUS
 10
-36.8920578602614668
 20
51.3340611353709093
 30
0.0
 11
-36.8920578602614668
 21
-35.6659388646290978
 31
0.0
  0
LINE
  5
1BE
100
AcDbEntity
100
AcDbLine
  8
STANDARD
 62
7
370
-1
  6
CONTINUOUS
 10
-36.8920578602614668
 20
142.8340611353708596
 30
0.0
 11
-36.8920578602614668
 21
55.8340611353708951
 31
0.0
  0
MTEXT
  5
1BF
100
AcDbEntity
100
AcDbMText
  8
STANDARD
 62
7
370
-1
  6
ByLayer
 10
24.6079421397385296
 20
-44.6659388646290978
 30
0.0
 40
1.5
 41
1500.0
 71
5
 72
2
  1
make_pulses()
  7
STYLE1
 50
0.0
 73
0
 44
1.0
  0
MTEXT
  5
1C0
100
AcDbEntity
100
AcDbMText
  8
STANDARD
 62
7
370
-1
  6
ByLayer
 10
24.6079421397385296
 20
46.8340611353709022
 30
0.0
 40
1.5
 41
1500.0
 71
5
 72
2
  1
make_pulses()
  7
STYLE1
 50
0.0
 73
0
 44
1.0
  0
MTEXT
  5
1C1
100
AcDbEntity
100
AcDbMText
  8
STANDARD
 62
7
370
-1
  6
ByLayer
 10
45.6079421397385261
 20
-29.6659388646290907
 30
0.0
 40
1.5
 41
1500.0
 71
5
 72
2
  1
STEP\~TYPE\~=\~1
  7
STYLE1
 50
0.0
 73
0
 44
1.0
  0
MTEXT
  5
1C2
100
AcDbEntity
100
AcDbMText
  8
STANDARD
 62
7
370
-1
  6
ByLayer
 10
45.6079421397385261
 20
-121.1659388646290978
 30
0.0
 40
1.5
 41
1500.0
 71
5
 72
2
  1
STEP\~TYPE\~=\~2\~-\~14
  7
STYLE1
 50
0.0
 73
0
 44
1.0
  0
MTEXT
  5
1C3
100
AcDbEntity
100
AcDbMText
  8
STANDARD
 62
7
370
-1
  6
ByLayer
 10
45.6079421397385261
 20
61.8340611353709022
 30
0.0
 40
1.5
 41
1500.0
 71
5
 72
2
  1
STEP\~TYPE\~=\~0
  7
STYLE1
 50
0.0
 73
0
 44
1.0
  0
MTEXT
  5
1C4
100
AcDbEntity
100
AcDbMText
  8
STANDARD
 62
7
370
-1
  6
ByLayer
 10
24.6079421397385296
 20
138.334061135370888
 30
0.0
 40
1.5
 41
1500.0
 71
5
 72
2
  1
make_pulses()
  7
STYLE1
 50
0.0
 73
0
 44
1.0
  0
MTEXT
  5
1C5
100
AcDbEntity
100
AcDbMText
  8
STANDARD
 62
7
370
-1
  6
ByLayer
 10
-78.8920578602614881
 20
-91.1659388646290978
 30
0.0
 40
1.5
 41
1500.0
 71
5
 72
2
  1
update_freq()
  7
STYLE1
 50
0.0
 73
0
 44
1.0
  0
MTEXT
  5
1C6
100
AcDbEntity
100
AcDbMText
  8
STANDARD
 62
7
370
-1
  6
ByLayer
 10
-78.8920578602614881
 20
0.3340611353709058
 30
0.0
 40
1.5
 41
1500.0
 71
5
 72
2
  1
update_freq()
  7
STYLE1
 50
0.0
 73
0
 44
1.0
  0
MTEXT
  5
1C7
100
AcDbEntity
100
AcDbMText
  8
STANDARD
 62
7
370
-1
  6
ByLayer
 10
-78.8920578602614881
 20
91.8340611353709022
 30
0.0
 40
1.5
 41
1500.0
 71
5
 72
2
  1
update_freq()
  7
STYLE1
 50
0.0
 73
0
 44
1.0
  0
MTEXT
  5
1C8
100
AcDbEntity
100
AcDbMText
  8
STANDARD
 62
7
370
-1
  6
ByLayer
 10
-78.8920578602614881
 20
-44.6659388646290978
 30
0.0
 40
1.5
 41
1500.0
 71
5
 72
2
  1
capture_position()
  7
STYLE1
 50
0.0
 73
0
 44
1.0
  0
MTEXT
  5
1C9
100
AcDbEntity
100
AcDbMText
  8
STANDARD
 62
7
370
-1
  6
ByLayer
 10
-78.8920578602614881
 20
46.8340611353709022
 30
0.0
 40
1.5
 41
1500.0
 71
5
 72
2
  1
capture_position()
  7
STYLE1
 50
0.0
 73
0
 44
1.0
  0
MTEXT
  5
1CA
100
AcDbEntity
100
AcDbMText
  8
STANDARD
 62
7
370
-1
  6
ByLayer
 10
-78.8920578602614881
 20
138.334061135370888
 30
0.0
 40
1.5
 41
1500.0
 71
5
 72
2
  1
capture_position()
  7
STYLE1
 50
0.0
 73
0
 44
1.0
  0
MTEXT
  5
1CB
100
AcDbEntity
100
AcDbMText
  8
STANDARD
 62
7
370
-1
  6
ByLayer
 10
-75.8920578602614881
 20
-122.6659388646290978
 30
0.0
 40
3.0
 41
1500.0
 71
5
 72
2
  1
freqgen.0
  7
STYLE1
 50
0.0
 73
0
 44
1.0
  0
MTEXT
  5
1CC
100
AcDbEntity
100
AcDbMText
  8
STANDARD
 62
7
370
-1
  6
ByLayer
 10
-75.8920578602614881
 20
-31.1659388646290978
 30
0.0
 40
3.0
 41
1500.0
 71
5
 72
2
  1
freqgen.0
  7
STYLE1
 50
0.0
 73
0
 44
1.0
  0
MTEXT
  5
1CD
100
AcDbEntity
100
AcDbMText
  8
STANDARD
 62
7
370
-1
  6
ByLayer
 10
-75.8920578602614881
 20
60.3340611353709093
 30
0.0
 40
3.0
 41
1500.0
 71
5
 72
2
  1
freqgen.0
  7
STYLE1
 50
0.0
 73
0
 44
1.0
  0
LINE
  5
1CE
100
AcDbEntity
100
AcDbLine
  8
STANDARD
 62
7
370
-1
  6
ByLayer
 10
-70.6420578602614739
 20
-112.1659388646290978
 30
0.0
 11
-75.8920578602614881
 21
-112.1659388646290978
 31
0.0
  0
LWPOLYLINE
  5
1CF
  8
STANDARD
 62
7
370
-1
  6
ByLayer
100
AcDbEntity
100
AcDbPolyline
 90
4
 70
0
 10
-70.6420578602614739
 20
-112.1659388646290978
 10
-71.8420578602614484
 20
-111.8992388646291118
 10
-71.8420578602614484
 20
-112.432638864629098
 10
-70.6420578602614739
 20
-112.1659388646290978
  0
LINE
  5
1D0
100
AcDbEntity
100
AcDbLine
  8
STANDARD
 62
7
370
-1
  6
ByLayer
 10
-70.6420578602614739
 20
-20.6659388646290978
 30
0.0
 11
-75.8920578602614881
 21
-20.6659388646290978
 31
0.0
  0
LWPOLYLINE
  5
1D1
  8
STANDARD
 62
7
370
-1
  6
ByLayer
100
AcDbEntity
100
AcDbPolyline
 90
4
 70
0
 10
-70.6420578602614739
 20
-20.6659388646290978
 10
-71.8420578602614484
 20
-20.3992388646290976
 10
-71.8420578602614484
 20
-20.9326388646291015
 10
-70.6420578602614739
 20
-20.6659388646290978
  0
LINE
  5
1D2
100
AcDbEntity
100
AcDbLine
  8
STANDARD
 62
7
370
-1
  6
ByLayer
 10
-70.6420578602614739
 20
70.834061135370888
 30
0.0
 11
-75.8920578602614881
 21
70.834061135370888
 31
0.0
  0
LWPOLYLINE
  5
1D3
  8
STANDARD
 62
7
370
-1
  6
ByLayer
100
AcDbEntity
100
AcDbPolyline
 90
4
 70
0
 10
-70.6420578602614739
 20
70.834061135370888
 10
-71.8420578602614484
 20
71.1007611353708882
 10
-71.8420578602614484
 20
70.5673611353708878
 10
-70.6420578602614739
 20
70.834061135370888
  0
LINE
  5
1D4
100
AcDbEntity
100
AcDbLine
  8
STANDARD
 62
7
370
-1
  6
ByLayer
 10
-66.1420578602614597
 20
-112.1659388646290978
 30
0.0
 11
-62.3920578602614597
 21
-112.1659388646290978
 31
0.0
  0
LWPOLYLINE
  5
1D5
  8
STANDARD
 62
7
370
-1
  6
ByLayer
100
AcDbEntity
100
AcDbPolyline
 90
4
 70
0
 10
-62.3920578602614597
 20
-112.1659388646290978
 10
-63.592057860261491
 20
-111.8992388646291118
 10
-63.592057860261491
 20
-112.432638864629098
 10
-62.3920578602614597
 20
-112.1659388646290978
  0
LINE
  5
1D6
100
AcDbEntity
100
AcDbLine
  8
STANDARD
 62
7
370
-1
  6
ByLayer
 10
-66.1420578602614597
 20
-20.6659388646290978
 30
0.0
 11
-62.3920578602614597
 21
-20.6659388646290978
 31
0.0
  0
LWPOLYLINE
  5
1D7
  8
STANDARD
 62
7
370
-1
  6
ByLayer
100
AcDbEntity
100
AcDbPolyline
 90
4
 70
0
 10
-62.3920578602614597
 20
-20.6659388646290978
 10
-63.592057860261491
 20
-20.3992388646290976
 10
-63.592057860261491
 20
-20.9326388646291015
 10
-62.3920578602614597
 20
-20.6659388646290978
  0
LINE
  5
1D8
100
AcDbEntity
100
AcDbLine
  8
STANDARD
 62
7
370
-1
  6
ByLayer
 10
-66.1420578602614597
 20
70.834061135370888
 30
0.0
 11
-62.3920578602614597
 21
70.834061135370888
 31
0.0
  0
LWPOLYLINE
  5
1D9
  8
STANDARD
 62
7
370
-1
  6
ByLayer
100
AcDbEntity
100
AcDbPolyline
 90
4
 70
0
 10
-62.3920578602614597
 20
70.834061135370888
 10
-63.592057860261491
 20
71.1007611353708882
 10
-63.592057860261491
 20
70.5673611353708878
 10
-62.3920578602614597
 20
70.834061135370888
  0
LINE
  5
1DA
100
AcDbEntity
100
AcDbLine
  8
STANDARD
 62
7
370
-1
  6
ByLayer
 10
-53.3920578602614881
 20
-112.1659388646290978
 30
0.0
 11
-42.8920578602614455
 21
-112.1659388646290978
 31
0.0
  0
LWPOLYLINE
  5
1DB
  8
STANDARD
 62
7
370
-1
  6
ByLayer
100
AcDbEntity
100
AcDbPolyline
 90
4
 70
0
 10
-42.8920578602614455
 20
-112.1659388646290978
 10
-44.0920578602614768
 20
-111.8992388646291118
 10
-44.0920578602614768
 20
-112.432638864629098
 10
-42.8920578602614455
 20
-112.1659388646290978
  0
LINE
  5
1DC
100
AcDbEntity
100
AcDbLine
  8
STANDARD
 62
7
370
-1
  6
ByLayer
 10
-53.3920578602614881
 20
-20.6659388646290978
 30
0.0
 11
-42.8920578602614455
 21
-20.6659388646290978
 31
0.0
  0
LWPOLYLINE
  5
1DD
  8
STANDARD
 62
7
370
-1
  6
ByLayer
100
AcDbEntity
100
AcDbPolyline
 90
4
 70
0
 10
-42.8920578602614455
 20
-20.6659388646290978
 10
-44.0920578602614768
 20
-20.3992388646290976
 10
-44.0920578602614768
 20
-20.9326388646291015
 10
-42.8920578602614455
 20
-20.6659388646290978
  0
LINE
  5
1DE
100
AcDbEntity
100
AcDbLine
  8
STANDARD
 62
7
370
-1
  6
ByLayer
 10
-53.3920578602614881
 20
70.834061135370888
 30
0.0
 11
-42.8920578602614455
 21
70.834061135370888
 31
0.0
  0
LWPOLYLINE
  5
1DF
  8
STANDARD
 62
7
370
-1
  6
ByLayer
100
AcDbEntity
100
AcDbPolyline
 90
4
 70
0
 10
-42.8920578602614455
 20
70.834061135370888
 10
-44.0920578602614768
 20
71.1007611353708882
 10
-44.0920578602614768
 20
70.5673611353708878
 10
-42.8920578602614455
 20
70.834061135370888
  0
LINE
  5
1E0
100
AcDbEntity
100
AcDbLine
  8
STANDARD
 62
7
370
-1
  6
ByLayer
 10
-42.8920578602614455
 20
-112.1659388646290978
 30
0.0
 11
-17.3920578602614562
 21
-112.1659388646290978
 31
0.0
  0
LWPOLYLINE
  5
1E1
  8
STANDARD
 62
7
370
-1
  6
ByLayer
100
AcDbEntity
100
AcDbPolyline
 90
4
 70
0
 10
-17.3920578602614562
 20
-112.1659388646290978
 10
-18.5920578602614555
 20
-111.8992388646291118
 10
-18.5920578602614555
 20
-112.432638864629098
 10
-17.3920578602614562
 20
-112.1659388646290978
  0
LINE
  5
1E2
100
AcDbEntity
100
AcDbLine
  8
STANDARD
 62
7
370
-1
  6
ByLayer
 10
-42.8920578602614455
 20
-20.6659388646290978
 30
0.0
 11
-17.3920578602614562
 21
-20.6659388646290978
 31
0.0
  0
LWPOLYLINE
  5
1E3
  8
STANDARD
 62
7
370
-1
  6
ByLayer
100
AcDbEntity
100
AcDbPolyline
 90
4
 70
0
 10
-17.3920578602614562
 20
-20.6659388646290978
 10
-18.5920578602614555
 20
-20.3992388646290976
 10
-18.5920578602614555
 20
-20.9326388646291015
 10
-17.3920578602614562
 20
-20.6659388646290978
  0
LINE
  5
1E4
100
AcDbEntity
100
AcDbLine
  8
STANDARD
 62
7
370
-1
  6
ByLayer
 10
-42.8920578602614455
 20
70.834061135370888
 30
0.0
 11
-17.3920578602614562
 21
70.834061135370888
 31
0.0
  0
LWPOLYLINE
  5
1E5
  8
STANDARD
 62
7
370
-1
  6
ByLayer
100
AcDbEntity
100
AcDbPolyline
 90
4
 70
0
 10
-17.3920578602614562
 20
70.834061135370888
 10
-18.5920578602614555
 20
71.1007611353708882
 10
-18.5920578602614555
 20
70.5673611353708878
 10
-17.3920578602614562
 20
70.834061135370888
  0
LINE
  5
1E6
100
AcDbEntity
100
AcDbLine
  8
STANDARD
 62
7
370
-1
  6
ByLayer
 10
-12.8920578602614722
 20
-101.6659388646290978
 30
0.0
 11
-12.8920578602614722
 21
-107.6659388646290978
 31
0.0
  0
LWPOLYLINE
  5
1E7
  8
STANDARD
 62
7
370
-1
  6
ByLayer
100
AcDbEntity
100
AcDbPolyline
 90
4
 70
0
 10
-12.8920578602614722
 20
-107.6659388646290978
 10
-12.6253578602614702
 20
-106.465938864629095
 10
-13.1587578602614741
 20
-106.465938864629095
 10
-12.8920578602614722
 20
-107.6659388646290978
  0
LINE
  5
1E8
100
AcDbEntity
100
AcDbLine
  8
STANDARD
 62
7
370
-1
  6
ByLayer
 10
-12.8920578602614722
 20
-10.1659388646290978
 30
0.0
 11
-12.8920578602614722
 21
-16.1659388646291013
 31
0.0
  0
LWPOLYLINE
  5
1E9
  8
STANDARD
 62
7
370
-1
  6
ByLayer
100
AcDbEntity
100
AcDbPolyline
 90
4
 70
0
 10
-12.8920578602614722
 20
-16.1659388646291013
 10
-12.6253578602614702
 20
-14.9659388646291021
 10
-13.1587578602614741
 20
-14.9659388646291021
 10
-12.8920578602614722
 20
-16.1659388646291013
  0
LINE
  5
1EA
100
AcDbEntity
100
AcDbLine
  8
STANDARD
 62
7
370
-1
  6
ByLayer
 10
-12.8920578602614722
 20
81.3340611353709164
 30
0.0
 11
-12.8920578602614722
 21
75.3340611353709022
 31
0.0
  0
LWPOLYLINE
  5
1EB
  8
STANDARD
 62
7
370
-1
  6
ByLayer
100
AcDbEntity
100
AcDbPolyline
 90
4
 70
0
 10
-12.8920578602614722
 20
75.3340611353709022
 10
-12.6253578602614702
 20
76.534061135370905
 10
-13.1587578602614741
 20
76.534061135370905
 10
-12.8920578602614722
 20
75.3340611353709022
  0
LINE
  5
1EC
100
AcDbEntity
100
AcDbLine
  8
STANDARD
 62
7
370
-1
  6
CONTINUOUS
 10
-36.8920578602614668
 20
-86.6659388646290978
 30
0.0
 11
-93.8920578602614881
 21
-86.6659388646290978
 31
0.0
  0
LINE
  5
1ED
100
AcDbEntity
100
AcDbLine
  8
STANDARD
 62
7
370
-1
  6
CONTINUOUS
 10
-36.8920578602614668
 20
4.8340611353709031
 30
0.0
 11
-93.8920578602614881
 21
4.8340611353709031
 31
0.0
  0
LINE
  5
1EE
100
AcDbEntity
100
AcDbLine
  8
STANDARD
 62
7
370
-1
  6
CONTINUOUS
 10
-36.8920578602614668
 20
96.3340611353709164
 30
0.0
 11
-93.8920578602614881
 21
96.3340611353709164
 31
0.0
  0
LINE
  5
1EF
100
AcDbEntity
100
AcDbLine
  8
STANDARD
 62
7
370
-1
  6
ByLayer
 10
41.1079421397385261
 20
111.3340611353709164
 30
0.0
 11
41.1079421397385261
 21
114.3340611353709022
 31
0.0
  0
LINE
  5
1F0
100
AcDbEntity
100
AcDbLine
  8
STANDARD
 62
7
370
-1
  6
ByLayer
 10
41.1079421397385261
 20
108.3340611353709022
 30
0.0
 11
41.1079421397385261
 21
105.3340611353709022
 31
0.0
  0
LINE
  5
1F1
100
AcDbEntity
100
AcDbLine
  8
STANDARD
 62
7
370
-1
  6
ByLayer
 10
9.6079421397385296
 20
72.334061135370888
 30
0.0
 11
30.6079421397385296
 21
72.334061135370888
 31
0.0
  0
LINE
  5
1F2
100
AcDbEntity
100
AcDbLine
  8
STANDARD
 62
7
370
-1
  6
ByLayer
 10
33.6079421397385261
 20
69.3340611353709022
 30
0.0
 11
9.6079421397385296
 21
69.3340611353709022
 31
0.0
  0
LINE
  5
1F3
100
AcDbEntity
100
AcDbLine
  8
STANDARD
 62
7
370
-1
  6
ByLayer
 10
-8.3920578602614615
 20
-112.1659388646290978
 30
0.0
 11
-2.3920578602614562
 21
-112.1659388646290978
 31
0.0
  0
LWPOLYLINE
  5
1F4
  8
STANDARD
 62
7
370
-1
  6
ByLayer
100
AcDbEntity
100
AcDbPolyline
 90
4
 70
0
 10
-2.3920578602614562
 20
-112.1659388646290978
 10
-3.5920578602614572
 20
-111.8992388646291118
 10
-3.5920578602614572
 20
-112.432638864629098
 10
-2.3920578602614562
 20
-112.1659388646290978
  0
LINE
  5
1F5
100
AcDbEntity
100
AcDbLine
  8
STANDARD
 62
7
370
-1
  6
ByLayer
 10
-8.3920578602614615
 20
-20.6659388646290978
 30
0.0
 11
-2.3920578602614562
 21
-20.6659388646290978
 31
0.0
  0
LWPOLYLINE
  5
1F6
  8
STANDARD
 62
7
370
-1
  6
ByLayer
100
AcDbEntity
100
AcDbPolyline
 90
4
 70
0
 10
-2.3920578602614562
 20
-20.6659388646290978
 10
-3.5920578602614572
 20
-20.3992388646290976
 10
-3.5920578602614572
 20
-20.9326388646291015
 10
-2.3920578602614562
 20
-20.6659388646290978
  0
LINE
  5
1F7
100
AcDbEntity
100
AcDbLine
  8
STANDARD
 62
7
370
-1
  6
ByLayer
 10
-8.3920578602614615
 20
70.834061135370888
 30
0.0
 11
-2.3920578602614562
 21
70.834061135370888
 31
0.0
  0
LWPOLYLINE
  5
1F8
  8
STANDARD
 62
7
370
-1
  6
ByLayer
100
AcDbEntity
100
AcDbPolyline
 90
4
 70
0
 10
-2.3920578602614562
 20
70.834061135370888
 10
-3.5920578602614572
 20
71.1007611353708882
 10
-3.5920578602614572
 20
70.5673611353708878
 10
-2.3920578602614562
 20
70.834061135370888
  0
LINE
  5
1F9
100
AcDbEntity
100
AcDbLine
  8
STANDARD
 62
7
370
-1
  6
ByLayer
 10
30.6079421397385296
 20
78.3340611353709022
 30
0.0
 11
30.6079421397385296
 21
72.334061135370888
 31
0.0
  0
LWPOLYLINE
  5
1FA
  8
STANDARD
 62
7
370
-1
  6
ByLayer
100
AcDbEntity
100
AcDbPolyline
 90
4
 70
0
 10
30.6079421397385296
 20
78.3340611353709022
 10
30.3412421397385295
 20
77.1340611353708994
 10
30.8746421397385369
 20
77.1340611353708994
 10
30.6079421397385296
 20
78.3340611353709022
  0
LINE
  5
1FB
100
AcDbEntity
100
AcDbLine
  8
STANDARD
 62
7
370
-1
  6
ByLayer
 10
33.6079421397385261
 20
78.3340611353709022
 30
0.0
 11
33.6079421397385261
 21
69.3340611353709022
 31
0.0
  0
LWPOLYLINE
  5
1FC
  8
STANDARD
 62
7
370
-1
  6
ByLayer
100
AcDbEntity
100
AcDbPolyline
 90
4
 70
0
 10
33.6079421397385261
 20
78.3340611353709022
 10
33.3412421397385259
 20
77.1340611353708994
 10
33.8746421397385262
 20
77.1340611353708994
 10
33.6079421397385261
 20
78.3340611353709022
  0
LINE
  5
1FD
100
AcDbEntity
100
AcDbLine
  8
STANDARD
 62
7
370
-1
  6
ByLayer
 10
33.6079421397385261
 20
90.3340611353709022
 30
0.0
 11
33.6079421397385261
 21
108.3340611353709022
 31
0.0
  0
LWPOLYLINE
  5
1FE
  8
STANDARD
 62
7
370
-1
  6
ByLayer
100
AcDbEntity
100
AcDbPolyline
 90
4
 70
0
 10
33.6079421397385261
 20
108.3340611353709022
 10
33.3412421397385259
 20
107.1340611353708994
 10
33.8746421397385262
 20
107.1340611353708994
 10
33.6079421397385261
 20
108.3340611353709022
  0
LINE
  5
1FF
100
AcDbEntity
100
AcDbLine
  8
STANDARD
 62
7
370
-1
  6
ByLayer
 10
30.6079421397385296
 20
90.3340611353709022
 30
0.0
 11
30.6079421397385296
 21
111.3340611353709164
 31
0.0
  0
LWPOLYLINE
  5
200
  8
STANDARD
 62
7
370
-1
  6
ByLayer
100
AcDbEntity
100
AcDbPolyline
 90
4
 70
0
 10
30.6079421397385296
 20
111.3340611353709164
 10
30.3412421397385295
 20
110.1340611353709136
 10
30.8746421397385369
 20
110.1340611353709136
 10
30.6079421397385296
 20
111.3340611353709164
  0
LINE
  5
201
100
AcDbEntity
100
AcDbLine
  8
STANDARD
 62
7
370
-1
  6
ByLayer
 10
41.1079421397385261
 20
114.3340611353709022
 30
0.0
 11
47.1079421397385261
 21
114.3340611353709022
 31
0.0
  0
LWPOLYLINE
  5
202
  8
STANDARD
 62
7
370
-1
  6
ByLayer
100
AcDbEntity
100
AcDbPolyline
 90
4
 70
0
 10
47.1079421397385261
 20
114.3340611353709022
 10
45.9079421397385232
 20
114.6007611353709024
 10
45.9079421397385232
 20
114.067361135370902
 10
47.1079421397385261
 20
114.3340611353709022
  0
LINE
  5
203
100
AcDbEntity
100
AcDbLine
  8
STANDARD
 62
7
370
-1
  6
ByLayer
 10
41.1079421397385261
 20
105.3340611353709022
 30
0.0
 11
47.1079421397385261
 21
105.3340611353709022
 31
0.0
  0
LWPOLYLINE
  5
204
  8
STANDARD
 62
7
370
-1
  6
ByLayer
100
AcDbEntity
100
AcDbPolyline
 90
4
 70
0
 10
47.1079421397385261
 20
105.3340611353709022
 10
45.9079421397385232
 20
105.6007611353709024
 10
45.9079421397385232
 20
105.067361135370902
 10
47.1079421397385261
 20
105.3340611353709022
  0
LINE
  5
205
100
AcDbEntity
100
AcDbLine
  8
STANDARD
 62
7
370
-1
  6
ByLayer
 10
0.6079421397385332
 20
111.3340611353709164
 30
0.0
 11
41.1079421397385261
 21
111.3340611353709164
 31
0.0
  0
LWPOLYLINE
  5
206
  8
STANDARD
 62
7
370
-1
  6
ByLayer
100
AcDbEntity
100
AcDbPolyline
 90
4
 70
0
 10
0.6079421397385332
 20
111.3340611353709164
 10
1.8079421397385325
 20
111.0673611353709163
 10
1.8079421397385325
 20
111.6007611353709166
 10
0.6079421397385332
 20
111.3340611353709164
  0
LINE
  5
207
100
AcDbEntity
100
AcDbLine
  8
STANDARD
 62
7
370
-1
  6
ByLayer
 10
0.6079421397385332
 20
108.3340611353709022
 30
0.0
 11
41.1079421397385261
 21
108.3340611353709022
 31
0.0
  0
LWPOLYLINE
  5
208
  8
STANDARD
 62
7
370
-1
  6
ByLayer
100
AcDbEntity
100
AcDbPolyline
 90
4
 70
0
 10
0.6079421397385332
 20
108.3340611353709022
 10
1.8079421397385325
 20
108.0673611353708878
 10
1.8079421397385325
 20
108.6007611353709024
 10
0.6079421397385332
 20
108.3340611353709022
  0
LINE
  5
209
100
AcDbEntity
100
AcDbLine
  8
STANDARD
 62
7
370
-1
  6
ByLayer
 10
17.1079421397385296
 20
81.3340611353709164
 30
0.0
 11
17.1079421397385296
 21
85.8340611353709022
 31
0.0
  0
LINE
  5
20A
100
AcDbEntity
100
AcDbLine
  8
STANDARD
 62
7
370
-1
  6
ByLayer
 10
17.1079421397385296
 20
85.8340611353709022
 30
0.0
 11
12.6079421397385438
 21
85.8340611353709022
 31
0.0
  0
LINE
  5
20B
100
AcDbEntity
100
AcDbLine
  8
STANDARD
 62
7
370
-1
  6
ByLayer
 10
18.6079421397385225
 20
82.8340611353709022
 30
0.0
 11
18.6079421397385225
 21
90.3340611353709022
 31
0.0
  0
LINE
  5
20C
100
AcDbEntity
100
AcDbLine
  8
STANDARD
 62
7
370
-1
  6
ByLayer
 10
18.6079421397385225
 20
90.3340611353709022
 30
0.0
 11
12.6079421397385438
 21
90.3340611353709022
 31
0.0
  0
LINE
  5
20D
100
AcDbEntity
100
AcDbLine
  8
STANDARD
 62
7
370
-1
  6
ByLayer
 10
20.1079421397385438
 20
84.3340611353709022
 30
0.0
 11
20.1079421397385438
 21
94.834061135370888
 31
0.0
  0
LINE
  5
20E
100
AcDbEntity
100
AcDbLine
  8
STANDARD
 62
7
370
-1
  6
ByLayer
 10
20.1079421397385438
 20
94.834061135370888
 30
0.0
 11
12.6079421397385438
 21
94.834061135370888
 31
0.0
  0
LINE
  5
20F
100
AcDbEntity
100
AcDbLine
  8
STANDARD
 62
7
370
-1
  6
ByLayer
 10
21.6079421397385367
 20
85.8340611353709022
 30
0.0
 11
21.6079421397385367
 21
99.3340611353709022
 31
0.0
  0
LINE
  5
210
100
AcDbEntity
100
AcDbLine
  8
STANDARD
 62
7
370
-1
  6
ByLayer
 10
21.6079421397385367
 20
99.3340611353709022
 30
0.0
 11
12.6079421397385438
 21
99.3340611353709022
 31
0.0
  0
LINE
  5
211
100
AcDbEntity
100
AcDbLine
  8
STANDARD
 62
7
370
-1
  6
ByLayer
 10
27.6079421397385438
 20
85.8340611353709022
 30
0.0
 11
21.6079421397385367
 21
85.8340611353709022
 31
0.0
  0
LWPOLYLINE
  5
212
  8
STANDARD
 62
7
370
-1
  6
ByLayer
100
AcDbEntity
100
AcDbPolyline
 90
4
 70
0
 10
27.6079421397385438
 20
85.8340611353709022
 10
26.407942139738541
 20
86.1007611353709024
 10
26.407942139738541
 20
85.5673611353708878
 10
27.6079421397385438
 20
85.8340611353709022
  0
LINE
  5
213
100
AcDbEntity
100
AcDbLine
  8
STANDARD
 62
7
370
-1
  6
ByLayer
 10
27.6079421397385438
 20
84.3340611353709022
 30
0.0
 11
20.1079421397385438
 21
84.3340611353709022
 31
0.0
  0
LWPOLYLINE
  5
214
  8
STANDARD
 62
7
370
-1
  6
ByLayer
100
AcDbEntity
100
AcDbPolyline
 90
4
 70
0
 10
27.6079421397385438
 20
84.3340611353709022
 10
26.407942139738541
 20
84.6007611353709024
 10
26.407942139738541
 20
84.067361135370902
 10
27.6079421397385438
 20
84.3340611353709022
  0
LINE
  5
215
100
AcDbEntity
100
AcDbLine
  8
STANDARD
 62
7
370
-1
  6
ByLayer
 10
27.6079421397385438
 20
82.8340611353709022
 30
0.0
 11
18.6079421397385225
 21
82.8340611353709022
 31
0.0
  0
LWPOLYLINE
  5
216
  8
STANDARD
 62
7
370
-1
  6
ByLayer
100
AcDbEntity
100
AcDbPolyline
 90
4
 70
0
 10
27.6079421397385438
 20
82.8340611353709022
 10
26.407942139738541
 20
83.1007611353709024
 10
26.407942139738541
 20
82.567361135370902
 10
27.6079421397385438
 20
82.8340611353709022
  0
LINE
  5
217
100
AcDbEntity
100
AcDbLine
  8
STANDARD
 62
7
370
-1
  6
ByLayer
 10
27.6079421397385438
 20
81.3340611353709164
 30
0.0
 11
17.1079421397385296
 21
81.3340611353709164
 31
0.0
  0
LWPOLYLINE
  5
218
  8
STANDARD
 62
7
370
-1
  6
ByLayer
100
AcDbEntity
100
AcDbPolyline
 90
4
 70
0
 10
27.6079421397385438
 20
81.3340611353709164
 10
26.407942139738541
 20
81.6007611353709166
 10
26.407942139738541
 20
81.0673611353709163
 10
27.6079421397385438
 20
81.3340611353709164
  0
LINE
  5
219
100
AcDbEntity
100
AcDbLine
  8
STANDARD
 62
7
370
-1
  6
ByLayer
 10
9.6079421397385296
 20
-110.6659388646290978
 30
0.0
 11
14.1079421397385367
 21
-110.6659388646290978
 31
0.0
  0
LINE
  5
21A
100
AcDbEntity
100
AcDbLine
  8
STANDARD
 62
7
370
-1
  6
ByLayer
 10
9.6079421397385296
 20
-19.1659388646291049
 30
0.0
 11
14.1079421397385367
 21
-19.1659388646291049
 31
0.0
  0
LINE
  5
21B
100
AcDbEntity
100
AcDbLine
  8
STANDARD
 62
7
370
-1
  6
ByLayer
 10
14.1079421397385367
 20
-7.1659388646290951
 30
0.0
 11
14.1079421397385367
 21
33.3340611353708951
 31
0.0
  0
LINE
  5
21C
100
AcDbEntity
100
AcDbLine
  8
STANDARD
 62
7
370
-1
  6
ByLayer
 10
9.6079421397385296
 20
-113.6659388646290978
 30
0.0
 11
17.1079421397385296
 21
-113.6659388646290978
 31
0.0
  0
LINE
  5
21D
100
AcDbEntity
100
AcDbLine
  8
STANDARD
 62
7
370
-1
  6
ByLayer
 10
9.6079421397385296
 20
-22.1659388646290942
 30
0.0
 11
17.1079421397385296
 21
-22.1659388646290942
 31
0.0
  0
LINE
  5
21E
100
AcDbEntity
100
AcDbLine
  8
STANDARD
 62
7
370
-1
  6
ByLayer
 10
17.1079421397385296
 20
-98.6659388646290978
 30
0.0
 11
17.1079421397385296
 21
-74.665938864629112
 31
0.0
  0
LINE
  5
21F
100
AcDbEntity
100
AcDbLine
  8
STANDARD
 62
7
370
-1
  6
ByLayer
 10
17.1079421397385296
 20
-7.1659388646290951
 30
0.0
 11
17.1079421397385296
 21
16.8340611353709022
 31
0.0
  0
LINE
  5
220
100
AcDbEntity
100
AcDbLine
  8
STANDARD
 62
7
370
-1
  6
ByLayer
 10
17.1079421397385296
 20
30.3340611353709058
 30
0.0
 11
17.1079421397385296
 21
16.8340611353709022
 31
0.0
  0
LINE
  5
221
100
AcDbEntity
100
AcDbLine
  8
STANDARD
 62
7
370
-1
  6
ByLayer
 10
36.6079421397385403
 20
33.3340611353708951
 30
0.0
 11
33.6079421397385261
 21
33.3340611353708951
 31
0.0
  0
LINE
  5
222
100
AcDbEntity
100
AcDbLine
  8
STANDARD
 62
7
370
-1
  6
ByLayer
 10
0.6079421397385332
 20
-71.6659388646290978
 30
0.0
 11
14.1079421397385367
 21
-71.6659388646290978
 31
0.0
  0
LWPOLYLINE
  5
223
  8
STANDARD
 62
7
370
-1
  6
ByLayer
100
AcDbEntity
100
AcDbPolyline
 90
4
 70
0
 10
0.6079421397385332
 20
-71.6659388646290978
 10
1.8079421397385325
 20
-71.932638864629098
 10
1.8079421397385325
 20
-71.3992388646290834
 10
0.6079421397385332
 20
-71.6659388646290978
  0
LINE
  5
224
100
AcDbEntity
100
AcDbLine
  8
STANDARD
 62
7
370
-1
  6
ByLayer
 10
0.6079421397385332
 20
19.8340611353708915
 30
0.0
 11
14.1079421397385367
 21
19.8340611353708915
 31
0.0
  0
LWPOLYLINE
  5
225
  8
STANDARD
 62
7
370
-1
  6
ByLayer
100
AcDbEntity
100
AcDbPolyline
 90
4
 70
0
 10
0.6079421397385332
 20
19.8340611353708915
 10
1.8079421397385325
 20
19.5673611353708878
 10
1.8079421397385325
 20
20.1007611353708917
 10
0.6079421397385332
 20
19.8340611353708915
  0
LINE
  5
226
100
AcDbEntity
100
AcDbLine
  8
STANDARD
 62
7
370
-1
  6
ByLayer
 10
17.1079421397385296
 20
-74.665938864629112
 30
0.0
 11
0.6079421397385332
 21
-74.665938864629112
 31
0.0
  0
LWPOLYLINE
  5
227
  8
STANDARD
 62
7
370
-1
  6
ByLayer
100
AcDbEntity
100
AcDbPolyline
 90
4
 70
0
 10
0.6079421397385332
 20
-74.665938864629112
 10
1.8079421397385325
 20
-74.932638864629098
 10
1.8079421397385325
 20
-74.3992388646291118
 10
0.6079421397385332
 20
-74.665938864629112
  0
LINE
  5
228
100
AcDbEntity
100
AcDbLine
  8
STANDARD
 62
7
370
-1
  6
ByLayer
 10
17.1079421397385296
 20
16.8340611353709022
 30
0.0
 11
0.6079421397385332
 21
16.8340611353709022
 31
0.0
  0
LWPOLYLINE
  5
229
  8
STANDARD
 62
7
370
-1
  6
ByLayer
100
AcDbEntity
100
AcDbPolyline
 90
4
 70
0
 10
0.6079421397385332
 20
16.8340611353709022
 10
1.8079421397385325
 20
16.5673611353708985
 10
1.8079421397385325
 20
17.1007611353709024
 10
0.6079421397385332
 20
16.8340611353709022
  0
LINE
  5
22A
100
AcDbEntity
100
AcDbLine
  8
STANDARD
 62
7
370
-1
  6
ByLayer
 10
36.6079421397385403
 20
22.8340611353709058
 30
0.0
 11
17.1079421397385296
 21
22.8340611353709058
 31
0.0
  0
LWPOLYLINE
  5
22B
  8
STANDARD
 62
7
370
-1
  6
ByLayer
100
AcDbEntity
100
AcDbPolyline
 90
4
 70
0
 10
36.6079421397385403
 20
22.8340611353709058
 10
35.4079421397385374
 20
23.1007611353709095
 10
35.4079421397385374
 20
22.5673611353709056
 10
36.6079421397385403
 20
22.8340611353709058
  0
LINE
  5
22C
100
AcDbEntity
100
AcDbLine
  8
STANDARD
 62
7
370
-1
  6
ByLayer
 10
36.6079421397385403
 20
25.8340611353708951
 30
0.0
 11
14.1079421397385367
 21
25.8340611353708951
 31
0.0
  0
LWPOLYLINE
  5
22D
  8
STANDARD
 62
7
370
-1
  6
ByLayer
100
AcDbEntity
100
AcDbPolyline
 90
4
 70
0
 10
36.6079421397385403
 20
25.8340611353708951
 10
35.4079421397385374
 20
26.1007611353708988
 10
35.4079421397385374
 20
25.5673611353708949
 10
36.6079421397385403
 20
25.8340611353708951
  0
LINE
  5
22E
100
AcDbEntity
100
AcDbLine
  8
STANDARD
 62
7
370
-1
  6
ByLayer
 10
36.6079421397385403
 20
30.3340611353709058
 30
0.0
 11
17.1079421397385296
 21
30.3340611353709058
 31
0.0
  0
LWPOLYLINE
  5
22F
  8
STANDARD
 62
7
370
-1
  6
ByLayer
100
AcDbEntity
100
AcDbPolyline
 90
4
 70
0
 10
36.6079421397385403
 20
30.3340611353709058
 10
35.4079421397385374
 20
30.6007611353709095
 10
35.4079421397385374
 20
30.0673611353709056
 10
36.6079421397385403
 20
30.3340611353709058
  0
LINE
  5
230
100
AcDbEntity
100
AcDbLine
  8
STANDARD
 62
7
370
-1
  6
ByLayer
 10
29.1079421397385367
 20
33.3340611353708951
 30
0.0
 11
14.1079421397385367
 21
33.3340611353708951
 31
0.0
  0
LWPOLYLINE
  5
231
  8
STANDARD
 62
7
370
-1
  6
ByLayer
100
AcDbEntity
100
AcDbPolyline
 90
4
 70
0
 10
29.1079421397385367
 20
33.3340611353708951
 10
27.907942139738541
 20
33.6007611353708953
 10
27.907942139738541
 20
33.0673611353708949
 10
29.1079421397385367
 20
33.3340611353708951
  0
LINE
  5
232
100
AcDbEntity
100
AcDbLine
  8
STANDARD
 62
7
370
-1
  6
ByLayer
 10
42.6079421397385403
 20
31.8340611353709022
 30
0.0
 11
47.1079421397385261
 21
31.8340611353709022
 31
0.0
  0
LWPOLYLINE
  5
233
  8
STANDARD
 62
7
370
-1
  6
ByLayer
100
AcDbEntity
100
AcDbPolyline
 90
4
 70
0
 10
47.1079421397385261
 20
31.8340611353709022
 10
45.9079421397385232
 20
32.1007611353709024
 10
45.9079421397385232
 20
31.5673611353708985
 10
47.1079421397385261
 20
31.8340611353709022
  0
LINE
  5
234
100
AcDbEntity
100
AcDbLine
  8
STANDARD
 62
7
370
-1
  6
ByLayer
 10
42.6079421397385403
 20
24.3340611353709022
 30
0.0
 11
47.1079421397385261
 21
24.3340611353709022
 31
0.0
  0
LWPOLYLINE
  5
235
  8
STANDARD
 62
7
370
-1
  6
ByLayer
100
AcDbEntity
100
AcDbPolyline
 90
4
 70
0
 10
47.1079421397385261
 20
24.3340611353709022
 10
45.9079421397385232
 20
24.6007611353709024
 10
45.9079421397385232
 20
24.0673611353708985
 10
47.1079421397385261
 20
24.3340611353709022
  0
LINE
  5
236
100
AcDbEntity
100
AcDbLine
  8
STANDARD
 62
7
370
-1
  6
ByLayer
 10
14.1079421397385367
 20
-110.6659388646290978
 30
0.0
 11
14.1079421397385367
 21
-98.6659388646290978
 31
0.0
  0
LWPOLYLINE
  5
237
  8
STANDARD
 62
7
370
-1
  6
ByLayer
100
AcDbEntity
100
AcDbPolyline
 90
4
 70
0
 10
14.1079421397385367
 20
-98.6659388646290978
 10
13.8412421397385366
 20
-99.8659388646291006
 10
14.3746421397385404
 20
-99.8659388646291006
 10
14.1079421397385367
 20
-98.6659388646290978
  0
LINE
  5
238
100
AcDbEntity
100
AcDbLine
  8
STANDARD
 62
7
370
-1
  6
ByLayer
 10
14.1079421397385367
 20
-19.1659388646291049
 30
0.0
 11
14.1079421397385367
 21
-7.1659388646290951
 31
0.0
  0
LWPOLYLINE
  5
239
  8
STANDARD
 62
7
370
-1
  6
ByLayer
100
AcDbEntity
100
AcDbPolyline
 90
4
 70
0
 10
14.1079421397385367
 20
-7.1659388646290951
 10
13.8412421397385366
 20
-8.3659388646290935
 10
14.3746421397385404
 20
-8.3659388646290935
 10
14.1079421397385367
 20
-7.1659388646290951
  0
LINE
  5
23A
100
AcDbEntity
100
AcDbLine
  8
STANDARD
 62
7
370
-1
  6
ByLayer
 10
17.1079421397385296
 20
-113.6659388646290978
 30
0.0
 11
17.1079421397385296
 21
-98.6659388646290978
 31
0.0
  0
LWPOLYLINE
  5
23B
  8
STANDARD
 62
7
370
-1
  6
ByLayer
100
AcDbEntity
100
AcDbPolyline
 90
4
 70
0
 10
17.1079421397385296
 20
-98.6659388646290978
 10
16.8412421397385259
 20
-99.8659388646291006
 10
17.3746421397385298
 20
-99.8659388646291006
 10
17.1079421397385296
 20
-98.6659388646290978
  0
LINE
  5
23C
100
AcDbEntity
100
AcDbLine
  8
STANDARD
 62
7
370
-1
  6
ByLayer
 10
17.1079421397385296
 20
-22.1659388646290942
 30
0.0
 11
17.1079421397385296
 21
-7.1659388646290951
 31
0.0
  0
LWPOLYLINE
  5
23D
  8
STANDARD
 62
7
370
-1
  6
ByLayer
100
AcDbEntity
100
AcDbPolyline
 90
4
 70
0
 10
17.1079421397385296
 20
-7.1659388646290951
 10
16.8412421397385259
 20
-8.3659388646290935
 10
17.3746421397385298
 20
-8.3659388646290935
 10
17.1079421397385296
 20
-7.1659388646290951
  0
LINE
  5
23E
100
AcDbEntity
100
AcDbLine
  8
STANDARD
 62
7
370
-1
  6
ByLayer
 10
14.1079421397385367
 20
-98.6659388646290978
 30
0.0
 11
14.1079421397385367
 21
-65.6659388646290978
 31
0.0
  0
LWPOLYLINE
  5
23F
  8
STANDARD
 62
7
370
-1
  6
ByLayer
100
AcDbEntity
100
AcDbPolyline
 90
4
 70
0
 10
14.1079421397385367
 20
-65.6659388646290978
 10
13.8412421397385366
 20
-66.8659388646291006
 10
14.3746421397385404
 20
-66.8659388646291006
 10
14.1079421397385367
 20
-65.6659388646290978
  0
LINE
  5
240
100
AcDbEntity
100
AcDbLine
  8
STANDARD
 62
7
370
-1
  6
ByLayer
 10
17.1079421397385296
 20
-65.6659388646290978
 30
0.0
 11
17.1079421397385296
 21
-74.665938864629112
 31
0.0
  0
LWPOLYLINE
  5
241
  8
STANDARD
 62
7
370
-1
  6
ByLayer
100
AcDbEntity
100
AcDbPolyline
 90
4
 70
0
 10
17.1079421397385296
 20
-65.6659388646290978
 10
16.8412421397385259
 20
-66.8659388646291006
 10
17.3746421397385298
 20
-66.8659388646291006
 10
17.1079421397385296
 20
-65.6659388646290978
  0
LINE
  5
242
100
AcDbEntity
100
AcDbLine
  8
STANDARD
 62
7
370
-1
  6
ByLayer
 10
41.1079421397385261
 20
-56.6659388646290978
 30
0.0
 11
41.1079421397385261
 21
-59.665938864629112
 31
0.0
  0
LINE
  5
243
100
AcDbEntity
100
AcDbLine
  8
STANDARD
 62
7
370
-1
  6
ByLayer
 10
41.1079421397385261
 20
-59.665938864629112
 30
0.0
 11
33.6079421397385261
 21
-59.665938864629112
 31
0.0
  0
LINE
  5
244
100
AcDbEntity
100
AcDbLine
  8
STANDARD
 62
7
370
-1
  6
ByLayer
 10
39.6079421397385261
 20
-52.1659388646290978
 30
0.0
 11
39.6079421397385261
 21
-58.1659388646290978
 31
0.0
  0
LINE
  5
245
100
AcDbEntity
100
AcDbLine
  8
STANDARD
 62
7
370
-1
  6
ByLayer
 10
39.6079421397385261
 20
-58.1659388646290978
 30
0.0
 11
33.6079421397385261
 21
-58.1659388646290978
 31
0.0
  0
LINE
  5
246
100
AcDbEntity
100
AcDbLine
  8
STANDARD
 62
7
370
-1
  6
ByLayer
 10
41.1079421397385261
 20
-65.6659388646290978
 30
0.0
 11
41.1079421397385261
 21
-62.6659388646290978
 31
0.0
  0
LINE
  5
247
100
AcDbEntity
100
AcDbLine
  8
STANDARD
 62
7
370
-1
  6
ByLayer
 10
41.1079421397385261
 20
-62.6659388646290978
 30
0.0
 11
33.6079421397385261
 21
-62.6659388646290978
 31
0.0
  0
LINE
  5
248
100
AcDbEntity
100
AcDbLine
  8
STANDARD
 62
7
370
-1
  6
ByLayer
 10
39.6079421397385261
 20
-70.1659388646290978
 30
0.0
 11
39.6079421397385261
 21
-64.1659388646290978
 31
0.0
  0
LINE
  5
249
100
AcDbEntity
100
AcDbLine
  8
STANDARD
 62
7
370
-1
  6
ByLayer
 10
39.6079421397385261
 20
-64.1659388646290978
 30
0.0
 11
33.6079421397385261
 21
-64.1659388646290978
 31
0.0
  0
LINE
  5
24A
100
AcDbEntity
100
AcDbLine
  8
STANDARD
 62
7
370
-1
  6
ByLayer
 10
47.1079421397385261
 20
-70.1659388646290978
 30
0.0
 11
39.6079421397385261
 21
-70.1659388646290978
 31
0.0
  0
LWPOLYLINE
  5
24B
  8
STANDARD
 62
7
370
-1
  6
ByLayer
100
AcDbEntity
100
AcDbPolyline
 90
4
 70
0
 10
47.1079421397385261
 20
-70.1659388646290978
 10
45.9079421397385232
 20
-69.8992388646290976
 10
45.9079421397385232
 20
-70.432638864629098
 10
47.1079421397385261
 20
-70.1659388646290978
  0
LINE
  5
24C
100
AcDbEntity
100
AcDbLine
  8
STANDARD
 62
7
370
-1
  6
ByLayer
 10
47.1079421397385261
 20
-65.6659388646290978
 30
0.0
 11
41.1079421397385261
 21
-65.6659388646290978
 31
0.0
  0
LWPOLYLINE
  5
24D
  8
STANDARD
 62
7
370
-1
  6
ByLayer
100
AcDbEntity
100
AcDbPolyline
 90
4
 70
0
 10
47.1079421397385261
 20
-65.6659388646290978
 10
45.9079421397385232
 20
-65.3992388646290976
 10
45.9079421397385232
 20
-65.932638864629098
 10
47.1079421397385261
 20
-65.6659388646290978
  0
LINE
  5
24E
100
AcDbEntity
100
AcDbLine
  8
STANDARD
 62
7
370
-1
  6
ByLayer
 10
47.1079421397385261
 20
-61.1659388646290978
 30
0.0
 11
33.6079421397385261
 21
-61.1659388646290978
 31
0.0
  0
LWPOLYLINE
  5
24F
  8
STANDARD
 62
7
370
-1
  6
ByLayer
100
AcDbEntity
100
AcDbPolyline
 90
4
 70
0
 10
47.1079421397385261
 20
-61.1659388646290978
 10
45.9079421397385232
 20
-60.8992388646290976
 10
45.9079421397385232
 20
-61.432638864629098
 10
47.1079421397385261
 20
-61.1659388646290978
  0
LINE
  5
250
100
AcDbEntity
100
AcDbLine
  8
STANDARD
 62
7
370
-1
  6
ByLayer
 10
47.1079421397385261
 20
-56.6659388646290978
 30
0.0
 11
41.1079421397385261
 21
-56.6659388646290978
 31
0.0
  0
LWPOLYLINE
  5
251
  8
STANDARD
 62
7
370
-1
  6
ByLayer
100
AcDbEntity
100
AcDbPolyline
 90
4
 70
0
 10
47.1079421397385261
 20
-56.6659388646290978
 10
45.9079421397385232
 20
-56.3992388646290905
 10
45.9079421397385232
 20
-56.932638864629098
 10
47.1079421397385261
 20
-56.6659388646290978
  0
LINE
  5
252
100
AcDbEntity
100
AcDbLine
  8
STANDARD
 62
7
370
-1
  6
ByLayer
 10
47.1079421397385261
 20
-52.1659388646290978
 30
0.0
 11
39.6079421397385261
 21
-52.1659388646290978
 31
0.0
  0
LWPOLYLINE
  5
253
  8
STANDARD
 62
7
370
-1
  6
ByLayer
100
AcDbEntity
100
AcDbPolyline
 90
4
 70
0
 10
47.1079421397385261
 20
-52.1659388646290978
 10
45.9079421397385232
 20
-51.8992388646290976
 10
45.9079421397385232
 20
-52.4326388646291051
 10
47.1079421397385261
 20
-52.1659388646290978
  0
LINE
  5
254
100
AcDbEntity
100
AcDbLine
  8
STANDARD
 62
7
370
-1
  6
ByLayer
 10
20.1079421397385438
 20
-61.1659388646290978
 30
0.0
 11
24.6079421397385296
 21
-61.1659388646290978
 31
0.0
  0
LWPOLYLINE
  5
255
  8
STANDARD
 62
7
370
-1
  6
ByLayer
100
AcDbEntity
100
AcDbPolyline
 90
4
 70
0
 10
24.6079421397385296
 20
-61.1659388646290978
 10
23.4079421397385268
 20
-60.8992388646290976
 10
23.4079421397385268
 20
-61.432638864629098
 10
24.6079421397385296
 20
-61.1659388646290978
  0
ENDSEC
  0
SECTION
  2
OBJECTS
  0
DICTIONARY
  5
C
100
AcDbDictionary
280
0
281
1
  3
ACAD_GROUP
350
D
  3
ACAD_LAYOUT
350
1A
  3
ACAD_MLINESTYLE
350
17
  3
ACAD_PLOTSETTINGS
350
19
  3
ACAD_PLOTSTYLENAME
350
E
  3
AcDbVariableDictionary
350
256
  0
DICTIONARY
  5
D
100
AcDbDictionary
280
0
281
1
  0
ACDBDICTIONARYWDFLT
  5
E
100
AcDbDictionary
281
1
  3
Normal
350
F
100
AcDbDictionaryWithDefault
340
F
  0
ACDBPLACEHOLDER
  5
F
  0
DICTIONARY
  5
17
100
AcDbDictionary
280
0
281
1
  3
Standard
350
18
  0
MLINESTYLE
  5
18
100
AcDbMlineStyle
  2
STANDARD
 70
0
  3

 62
256
 51
90.0
 52
90.0
 71
2
 49
0.5
 62
256
  6
BYLAYER
 49
-0.5
 62
256
  6
BYLAYER
  0
DICTIONARY
  5
19
100
AcDbDictionary
280
0
281
1
  0
DICTIONARY
  5
1A
100
AcDbDictionary
281
1
  3
Layout1
350
1E
  3
Layout2
350
26
  3
Model
350
22
  0
LAYOUT
  5
1E
100
AcDbPlotSettings
  1

  2
C:\Program Files\AutoCAD 2002\plotters\DWF ePlot (optimized for plotting).pc3
  4

  6

 40
0.0
 41
0.0
 42
0.0
 43
0.0
 44
0.0
 45
0.0
 46
0.0
 47
0.0
 48
0.0
 49
0.0
140
0.0
141
0.0
142
1.0
143
1.0
 70
688
 72
0
 73
0
 74
5
  7

 75
16
147
1.0
148
0.0
149
0.0
100
AcDbLayout
  1
Layout1
 70
1
 71
1
 10
0.0
 20
0.0
 11
420.0
 21
297.0
 12
0.0
 22
0.0
 32
0.0
 14
100000000000000000000.0
 24
100000000000000000000.0
 34
100000000000000000000.0
 15
-100000000000000000000.0
 25
-100000000000000000000.0
 35
-100000000000000000000.0
146
0.0
 13
0.0
 23
0.0
 33
0.0
 16
1.0
 26
0.0
 36
0.0
 17
0.0
 27
1.0
 37
0.0
 76
0
330
1B
  0
LAYOUT
  5
22
100
AcDbPlotSettings
  1

  2
C:\Program Files\AutoCAD 2002\plotters\DWF ePlot (optimized for plotting).pc3
  4

  6

 40
0.0
 41
0.0
 42
0.0
 43
0.0
 44
0.0
 45
0.0
 46
0.0
 47
0.0
 48
0.0
 49
0.0
140
0.0
141
0.0
142
1.0
143
1.0
 70
1712
 72
0
 73
0
 74
0
  7

 75
0
147
1.0
148
0.0
149
0.0
100
AcDbLayout
  1
Model
 70
1
 71
0
 10
0.0
 20
0.0
 11
12.0
 21
9.0
 12
0.0
 22
0.0
 32
0.0
 14
0.0
 24
0.0
 34
0.0
 15
0.0
 25
0.0
 35
0.0
146
0.0
 13
0.0
 23
0.0
 33
0.0
 16
1.0
 26
0.0
 36
0.0
 17
0.0
 27
1.0
 37
0.0
 76
0
330
1F
  0
LAYOUT
  5
26
100
AcDbPlotSettings
  1

  2
C:\Program Files\AutoCAD 2002\plotters\DWF ePlot (optimized for plotting).pc3
  4

  6

 40
0.0
 41
0.0
 42
0.0
 43
0.0
 44
0.0
 45
0.0
 46
0.0
 47
0.0
 48
0.0
 49
0.0
140
0.0
141
0.0
142
1.0
143
1.0
 70
688
 72
0
 73
0
 74
5
  7

 75
16
147
1.0
148
0.0
149
0.0
100
AcDbLayout
  1
Layout2
 70
1
 71
2
 10
0.0
 20
0.0
 11
12.0
 21
9.0
 12
0.0
 22
0.0
 32
0.0
 14
0.0
 24
0.0
 34
0.0
 15
0.0
 25
0.0
 35
0.0
146
0.0
 13
0.0
 23
0.0
 33
0.0
 16
1.0
 26
0.0
 36
0.0
 17
0.0
 27
1.0
 37
0.0
 76
0
330
23
  0
DICTIONARY
  5
256
100
AcDbDictionary
281
1
  3
DIMASSOC
350
258
  3
HIDETEXT
350
257
  0
DICTIONARYVAR
  5
257
100
DictionaryVariables
280
0
  1
2
  0
DICTIONARYVAR
  5
258
100
DictionaryVariables
280
0
  1
1
  0
ENDSEC
  0
EOF
