999
dxflib 2.0.4.8
  0
SECTION
  2
HEADER
  9
$ACADVER
  1
AC1015
  9
$HANDSEED
  5
FFFF
  9
$DIMTAD
 70
0
  9
$AXISUNIT
 10
0.0
 20
0.0
 30
0.0
  9
$USERR4
 40
0.0
  9
$CLAYER
  8
0
  9
$MENU
  1
acad
  9
$CHAMFERA
 40
0.0
  9
$ATTREQ
 70
1
  9
$UCSYDIR
 10
0.0
 20
1.0
 30
0.0
  9
$USERR5
 40
0.0
  9
$SHADEDIF
 70
70
  9
$TILEMODE
 70
1
  9
$VISRETAIN
 70
0
  9
$EXTMIN
 10
-6.3494999999999999
 20
10.8725000000000005
 30
0.0
  9
$ORTHOMODE
 70
0
  9
$REGENMODE
 70
1
  9
$TRACEWID
 40
0.05
  9
$CHAMFERB
 40
0.0
  9
$UCSXDIR
 10
1.0
 20
0.0
 30
0.0
  9
$DIMADEC
 70
0
  9
$GRIDUNIT
 10
0.0
 20
0.0
  9
$DIMASZ
 40
0.18
  9
$DIMSHO
 70
1
  9
$DIMALT
 70
0
  9
$DIMSAH
 70
0
  9
$DIMTFAC
 40
1.0
  9
$SKETCHINC
 40
0.1
  9
$USRTIMER
 70
1
  9
$ANGBASE
 50
0.0
  9
$PUCSYDIR
 10
0.0
 20
1.0
 30
0.0
  9
$DIMGAP
 40
0.09
  9
$LIMMIN
 10
0.0
 20
0.0
  9
$DIMTSZ
 40
0.0
  9
$AXISMODE
 70
0
  9
$SPLFRAME
 70
0
  9
$SURFTYPE
 70
6
  9
$PUCSXDIR
 10
1.0
 20
0.0
 30
0.0
  9
$BLIPMODE
 70
1
  9
$SURFTAB1
 70
6
  9
$DWGCODEPAGE
  3
dos850
  9
$LUNITS
 70
2
  9
$AUPREC
 70
0
  9
$SPLINESEGS
 70
8
  9
$INSBASE
 10
0.0
 20
0.0
 30
0.0
  9
$DIMRND
 40
0.0
  9
$DIMCEN
 40
0.09
  9
$ELEVATION
 40
0.0
  9
$SKPOLY
 70
0
  9
$SURFTAB2
 70
6
  9
$USERI1
 70
0
  9
$UNITMODE
 70
0
  9
$EXTMAX
 10
3.6495000000000002
 20
16.4274999999999984
 30
0.0
  9
$FILLMODE
 70
1
  9
$DRAGMODE
 70
2
  9
$TEXTSIZE
 40
0.2
  9
$PELEVATION
 40
0.0
  9
$UCSORG
 10
0.0
 20
0.0
 30
0.0
  9
$USERI2
 70
0
  9
$INSUNITS
 70
4
  9
$DIMEXO
 40
0.0625
  9
$DIMSCALE
 40
1.0
  9
$DIMDLE
 40
0.0
  9
$DIMZIN
 70
0
  9
$TDUSRTIMER
 40
0.0
  9
$ANGDIR
 70
0
  9
$SURFU
 70
6
  9
$USERI3
 70
0
  9
$LIMMAX
 10
0.0
 20
0.0
  9
$QTEXTMODE
 70
0
  9
$OSMODE
 70
0
  9
$SURFV
 70
6
  9
$USERI4
 70
0
  9
$WORLDVIEW
 70
1
  9
$DIMLUNIT
 70
2
  9
$ATTMODE
 70
1
  9
$DIMLIM
 70
0
  9
$DIMSE1
 70
0
  9
$THICKNESS
 40
0.0
  9
$LIMCHECK
 70
0
  9
$PDMODE
 70
0
  9
$HANDLING
 70
1
  9
$USERI5
 70
0
  9
$GRIDMODE
 70
1
  9
$DIMTXT
 40
0.18
  9
$CELTYPE
  6
CONTINUOUS
  9
$DIMTOH
 70
1
  9
$DIMSE2
 70
0
  9
$DIMLFAC
 40
1.0
  9
$DIMSOXD
 70
0
  9
$TDINDWG
 40
0.0
  9
$SPLINETYPE
 70
6
  9
$PUCSORG
 10
0.0
 20
0.0
 30
0.0
  9
$PEXTMIN
 10
100000000000000000000.0
 20
100000000000000000000.0
 30
100000000000000000000.0
  9
$PEXTMAX
 10
-100000000000000000000.0
 20
-100000000000000000000.0
 30
-100000000000000000000.0
  9
$LUPREC
 70
4
  9
$CECOLOR
 62
256
  9
$DIMDLI
 40
0.38
  9
$DIMTM
 40
0.0
  9
$DIMASO
 70
1
  9
$DIMTVP
 40
0.0
  9
$DIMSTYLE
  2
STANDARD
  9
$PLINEWID
 40
0.0
  9
$PLIMCHECK
 70
0
  9
$LTSCALE
 40
1.0
  9
$DIMTIH
 70
1
  9
$DIMALTD
 70
2
  9
$DIMCLRT
 70
0
  9
$FILLETRAD
 40
0.0
  9
$TDUPDATE
 40
0.0
  9
$MAXACTVP
 70
16
  9
$TREEDEPTH
 70
3020
  9
$PLIMMIN
 10
0.0
 20
0.0
  9
$PLIMMAX
 10
210.0
 20
297.0
  9
$PINSBASE
 10
156.3990892661070404
 20
177.8982324864239501
 30
0.0
  9
$DIMCLRD
 70
0
  9
$PDSIZE
 40
0.0
  9
$ATTDIA
 70
0
  9
$USERR1
 40
0.0
  9
$DIMEXE
 40
0.18
  9
$TEXTSTYLE
  7
STANDARD
  9
$DIMTP
 40
0.0
  9
$DIMTOL
 70
0
  9
$DIMALTF
 40
25.3999999999999986
  9
$DIMTOFL
 70
0
  9
$DIMCLRE
 70
0
  9
$TDCREATE
 40
0.0
  9
$COORDS
 70
0
  9
$USERR2
 40
0.0
  9
$SHADEDGE
 70
3
  9
$PLINEGEN
 70
1
  9
$PSLTSCALE
 70
0
  9
$DIMAUNIT
 70
0
  9
$MIRRTEXT
 70
1
  9
$DIMTIX
 70
0
  9
$USERR3
 40
0.0
  9
$AUNITS
 70
0
  0
ENDSEC
  0
SECTION
  2
TABLES
  0
TABLE
  2
VPORT
  5
8
100
AcDbSymbolTable
 70
1
  0
VPORT
  5
30
100
AcDbSymbolTableRecord
100
AcDbViewportTableRecord
  2
*Active
 70
0
 10
0.0
 20
0.0
 11
1.0
 21
1.0
 12
286.3055555555554861
 22
148.5
 13
0.0
 23
0.0
 14
10.0
 24
10.0
 15
10.0
 25
10.0
 16
0.0
 26
0.0
 36
1.0
 17
0.0
 27
0.0
 37
0.0
 40
297.0
 41
1.92798353909465
 42
50.0
 43
0.0
 44
0.0
 50
0.0
 51
0.0
 71
0
 72
100
 73
1
 74
3
 75
1
 76
1
 77
0
 78
0
281
0
 65
1
110
0.0
120
0.0
130
0.0
111
1.0
121
0.0
131
0.0
112
0.0
122
1.0
132
0.0
 79
0
146
0.0
  0
ENDTAB
  0
TABLE
  2
LTYPE
  5
5
100
AcDbSymbolTable
 70
21
  0
LTYPE
  5
14
100
AcDbSymbolTableRecord
100
AcDbLinetypeTableRecord
  2
ByBlock
 70
0
  3

 72
65
 73
0
 40
0.0
  0
LTYPE
  5
15
100
AcDbSymbolTableRecord
100
AcDbLinetypeTableRecord
  2
ByLayer
 70
0
  3

 72
65
 73
0
 40
0.0
  0
LTYPE
  5
16
100
AcDbSymbolTableRecord
100
AcDbLinetypeTableRecord
  2
CONTINUOUS
 70
0
  3
Solid line
 72
65
 73
0
 40
0.0
  0
LTYPE
  5
31
100
AcDbSymbolTableRecord
100
AcDbLinetypeTableRecord
  2
DOT
 70
0
  3
Dot . . . . . . . . . . . . . . . . . . . . . .
 72
65
 73
2
 40
6.3499999999999996
 49
0.0
 74
0
 49
-6.3499999999999996
 74
0
  0
LTYPE
  5
32
100
AcDbSymbolTableRecord
100
AcDbLinetypeTableRecord
  2
DOT2
 70
0
  3
Dot (.5x) .....................................
 72
65
 73
2
 40
3.1749999999999998
 49
0.0
 74
0
 49
-3.1749999999999998
 74
0
  0
LTYPE
  5
33
100
AcDbSymbolTableRecord
100
AcDbLinetypeTableRecord
  2
DOTX2
 70
0
  3
Dot (2x) .  .  .  .  .  .  .  .  .  .  .  .  .
 72
65
 73
2
 40
12.6999999999999993
 49
0.0
 74
0
 49
-12.6999999999999993
 74
0
  0
LTYPE
  5
34
100
AcDbSymbolTableRecord
100
AcDbLinetypeTableRecord
  2
DASHED
 70
0
  3
Dashed __ __ __ __ __ __ __ __ __ __ __ __ __ _
 72
65
 73
2
 40
19.0500000000000007
 49
12.6999999999999993
 74
0
 49
-6.3499999999999996
 74
0
  0
LTYPE
  5
35
100
AcDbSymbolTableRecord
100
AcDbLinetypeTableRecord
  2
DASHED2
 70
0
  3
Dashed (.5x) _ _ _ _ _ _ _ _ _ _ _ _ _ _ _ _ _
 72
65
 73
2
 40
9.5250000000000004
 49
6.3499999999999996
 74
0
 49
-3.1749999999999998
 74
0
  0
LTYPE
  5
36
100
AcDbSymbolTableRecord
100
AcDbLinetypeTableRecord
  2
DASHEDX2
 70
0
  3
Dashed (2x) ____  ____  ____  ____  ____  ___
 72
65
 73
2
 40
38.1000000000000014
 49
25.3999999999999986
 74
0
 49
-12.6999999999999993
 74
0
  0
LTYPE
  5
37
100
AcDbSymbolTableRecord
100
AcDbLinetypeTableRecord
  2
DASHDOT
 70
0
  3
Dash dot __ . __ . __ . __ . __ . __ . __ . __
 72
65
 73
4
 40
25.3999999999999986
 49
12.6999999999999993
 74
0
 49
-6.3499999999999996
 74
0
 49
0.0
 74
0
 49
-6.3499999999999996
 74
0
  0
LTYPE
  5
38
100
AcDbSymbolTableRecord
100
AcDbLinetypeTableRecord
  2
DASHDOT2
 70
0
  3
Dash dot (.5x) _._._._._._._._._._._._._._._.
 72
65
 73
4
 40
12.6999999999999993
 49
6.3499999999999996
 74
0
 49
-3.1749999999999998
 74
0
 49
0.0
 74
0
 49
-3.1749999999999998
 74
0
  0
LTYPE
  5
39
100
AcDbSymbolTableRecord
100
AcDbLinetypeTableRecord
  2
DASHDOTX2
 70
0
  3
Dash dot (2x) ____  .  ____  .  ____  .  ___
 72
65
 73
4
 40
50.7999999999999972
 49
25.3999999999999986
 74
0
 49
-12.6999999999999993
 74
0
 49
0.0
 74
0
 49
-12.6999999999999993
 74
0
  0
LTYPE
  5
3A
100
AcDbSymbolTableRecord
100
AcDbLinetypeTableRecord
  2
DIVIDE
 70
0
  3
Divide ____ . . ____ . . ____ . . ____ . . ____
 72
65
 73
6
 40
31.75
 49
12.6999999999999993
 74
0
 49
-6.3499999999999996
 74
0
 49
0.0
 74
0
 49
-6.3499999999999996
 74
0
 49
0.0
 74
0
 49
-6.3499999999999996
 74
0
  0
LTYPE
  5
3B
100
AcDbSymbolTableRecord
100
AcDbLinetypeTableRecord
  2
DIVIDE2
 70
0
  3
Divide (.5x) __..__..__..__..__..__..__..__.._
 72
65
 73
6
 40
15.875
 49
6.3499999999999996
 74
0
 49
-3.1749999999999998
 74
0
 49
0.0
 74
0
 49
-3.1749999999999998
 74
0
 49
0.0
 74
0
 49
-3.1749999999999998
 74
0
  0
LTYPE
  5
3C
100
AcDbSymbolTableRecord
100
AcDbLinetypeTableRecord
  2
DIVIDEX2
 70
0
  3
Divide (2x) ________  .  .  ________  .  .  _
 72
65
 73
6
 40
63.5
 49
25.3999999999999986
 74
0
 49
-12.6999999999999993
 74
0
 49
0.0
 74
0
 49
-12.6999999999999993
 74
0
 49
0.0
 74
0
 49
-12.6999999999999993
 74
0
  0
LTYPE
  5
3D
100
AcDbSymbolTableRecord
100
AcDbLinetypeTableRecord
  2
CENTER
 70
0
  3
Center ____ _ ____ _ ____ _ ____ _ ____ _ ____
 72
65
 73
4
 40
50.7999999999999972
 49
31.75
 74
0
 49
-6.3499999999999996
 74
0
 49
6.3499999999999996
 74
0
 49
-6.3499999999999996
 74
0
  0
LTYPE
  5
3E
100
AcDbSymbolTableRecord
100
AcDbLinetypeTableRecord
  2
CENTER2
 70
0
  3
Center (.5x) ___ _ ___ _ ___ _ ___ _ ___ _ ___
 72
65
 73
4
 40
28.5749999999999993
 49
19.0500000000000007
 74
0
 49
-3.1749999999999998
 74
0
 49
3.1749999999999998
 74
0
 49
-3.1749999999999998
 74
0
  0
LTYPE
  5
3F
100
AcDbSymbolTableRecord
100
AcDbLinetypeTableRecord
  2
CENTERX2
 70
0
  3
Center (2x) ________  __  ________  __  _____
 72
65
 73
4
 40
101.5999999999999943
 49
63.5
 74
0
 49
-12.6999999999999993
 74
0
 49
12.6999999999999993
 74
0
 49
-12.6999999999999993
 74
0
  0
LTYPE
  5
40
100
AcDbSymbolTableRecord
100
AcDbLinetypeTableRecord
  2
BORDER
 70
0
  3
Border __ __ . __ __ . __ __ . __ __ . __ __ .
 72
65
 73
6
 40
44.4500000000000028
 49
12.6999999999999993
 74
0
 49
-6.3499999999999996
 74
0
 49
12.6999999999999993
 74
0
 49
-6.3499999999999996
 74
0
 49
0.0
 74
0
 49
-6.3499999999999996
 74
0
  0
LTYPE
  5
41
100
AcDbSymbolTableRecord
100
AcDbLinetypeTableRecord
  2
BORDER2
 70
0
  3
Border (.5x) __.__.__.__.__.__.__.__.__.__.__.
 72
65
 73
6
 40
22.2250000000000014
 49
6.3499999999999996
 74
0
 49
-3.1749999999999998
 74
0
 49
6.3499999999999996
 74
0
 49
-3.1749999999999998
 74
0
 49
0.0
 74
0
 49
-3.1749999999999998
 74
0
  0
LTYPE
  5
42
100
AcDbSymbolTableRecord
100
AcDbLinetypeTableRecord
  2
BORDERX2
 70
0
  3
Border (2x) ____  ____  .  ____  ____  .  ___
 72
65
 73
6
 40
88.9000000000000057
 49
25.3999999999999986
 74
0
 49
-12.6999999999999993
 74
0
 49
25.3999999999999986
 74
0
 49
-12.6999999999999993
 74
0
 49
0.0
 74
0
 49
-12.6999999999999993
 74
0
  0
ENDTAB
  0
TABLE
  2
LAYER
  5
2
100
AcDbSymbolTable
 70
7
  0
LAYER
  5
10
100
AcDbSymbolTableRecord
100
AcDbLayerTableRecord
  2
0
 70
0
 62
7
  6
CONTINUOUS
390
F
  0
LAYER
  5
43
100
AcDbSymbolTableRecord
100
AcDbLayerTableRecord
  2
MERGE
 70
0
 62
7
  6
CONTINUOUS
390
F
  0
LAYER
  5
44
100
AcDbSymbolTableRecord
100
AcDbLayerTableRecord
  2
STANDARD
 70
0
 62
7
  6
CONTINUOUS
370
25
390
F
  0
LAYER
  5
45
100
AcDbSymbolTableRecord
100
AcDbLayerTableRecord
  2
PINS
 70
0
 62
7
  6
CONTINUOUS
390
F
  0
LAYER
  5
46
100
AcDbSymbolTableRecord
100
AcDbLayerTableRecord
  2
PARAMS
 70
0
 62
7
  6
CONTINUOUS
370
25
390
F
  0
LAYER
  5
47
100
AcDbSymbolTableRecord
100
AcDbLayerTableRecord
  2
OUTLINE
 70
0
 62
7
  6
CONTINUOUS
390
F
  0
LAYER
  5
48
100
AcDbSymbolTableRecord
100
AcDbLayerTableRecord
  2
INTERNALS
 70
0
 62
7
  6
CONTINUOUS
390
F
  0
ENDTAB
  0
TABLE
  2
STYLE
  5
3
100
AcDbSymbolTable
 70
1
  0
STYLE
  5
11
100
AcDbSymbolTableRecord
100
AcDbTextStyleTableRecord
  2
Standard
 70
0
 40
0.0
 41
0.75
 50
0.0
 71
0
 42
2.5
  3
txt
  4

  0
ENDTAB
  0
TABLE
  2
VIEW
  5
6
100
AcDbSymbolTable
 70
0
  0
ENDTAB
  0
TABLE
  2
UCS
  5
7
100
AcDbSymbolTable
 70
0
  0
ENDTAB
  0
TABLE
  2
APPID
  5
9
100
AcDbSymbolTable
 70
1
  0
APPID
  5
12
100
AcDbSymbolTableRecord
100
AcDbRegAppTableRecord
  2
ACAD
 70
0
  0
ENDTAB
  0
TABLE
  2
DIMSTYLE
  5
A
100
AcDbSymbolTable
 70
1
100
AcDbDimStyleTable
 71
0
  0
DIMSTYLE
105
27
100
AcDbSymbolTableRecord
100
AcDbDimStyleTableRecord
  2
Standard
 41
0.18
 42
0.0625
 43
3.75
 44
0.18
 70
0
 73
0
 74
0
 77
1
 78
8
140
0.18
141
2.5
143
0.03937007874016
147
0.09
171
3
172
1
271
2
272
2
274
3
278
44
283
0
284
8
340
11
  0
ENDTAB
  0
TABLE
  2
BLOCK_RECORD
  5
1
100
AcDbSymbolTable
 70
1
  0
BLOCK_RECORD
  5
1F
100
AcDbSymbolTableRecord
100
AcDbBlockTableRecord
  2
*Model_Space
340
22
  0
BLOCK_RECORD
  5
1B
100
AcDbSymbolTableRecord
100
AcDbBlockTableRecord
  2
*Paper_Space
340
1E
  0
BLOCK_RECORD
  5
23
100
AcDbSymbolTableRecord
100
AcDbBlockTableRecord
  2
*Paper_Space0
340
26
  0
ENDTAB
  0
ENDSEC
  0
SECTION
  2
BLOCKS
  0
BLOCK
  5
20
100
AcDbEntity
  8
0
100
AcDbBlockBegin
  2
*Model_Space
 70
0
 10
0.0
 20
0.0
 30
0.0
  3
*Model_Space
  1

  0
ENDBLK
  5
21
100
AcDbEntity
  8
0
100
AcDbBlockEnd
  0
BLOCK
  5
1C
100
AcDbEntity
 67
1
  8
0
100
AcDbBlockBegin
  2
*Paper_Space
 70
0
 10
0.0
 20
0.0
 30
0.0
  3
*Paper_Space
  1

  0
ENDBLK
  5
1D
100
AcDbEntity
 67
1
  8
0
100
AcDbBlockEnd
  0
BLOCK
  5
24
100
AcDbEntity
  8
0
100
AcDbBlockBegin
  2
*Paper_Space0
 70
0
 10
0.0
 20
0.0
 30
0.0
  3
*Paper_Space0
  1

  0
ENDBLK
  5
25
100
AcDbEntity
  8
0
100
AcDbBlockEnd
  0
ENDSEC
  0
SECTION
  2
ENTITIES
  0
LWPOLYLINE
  5
49
  8
STANDARD
 62
7
370
-1
  6
ByLayer
100
AcDbEntity
100
AcDbPolyline
 90
7
 70
1
 10
-129.43831131902013
 20
-45.4160454922390642
 10
-129.43831131902013
 20
-42.4160454922390784
 10
-109.9383113190201726
 20
-42.4160454922390784
 10
-108.4383113190201584
 20
-43.9160454922390997
 10
-109.9383113190201726
 20
-45.4160454922390642
 10
-129.43831131902013
 20
-45.4160454922390642
 10
-129.43831131902013
 20
-45.4160454922390642
  0
LWPOLYLINE
  5
4A
  8
STANDARD
 62
7
370
-1
  6
ByLayer
100
AcDbEntity
100
AcDbPolyline
 90
8
 70
1
 10
-129.43831131902013
 20
-57.4160454922390784
 10
-130.9383113190201584
 20
-55.9160454922390571
 10
-129.43831131902013
 20
-54.4160454922390358
 10
-109.9383113190201726
 20
-54.4160454922390358
 10
-108.4383113190201584
 20
-55.9160454922390571
 10
-109.9383113190201726
 20
-57.4160454922390784
 10
-129.43831131902013
 20
-57.4160454922390784
 10
-129.43831131902013
 20
-57.4160454922390784
  0
MTEXT
  5
4B
100
AcDbEntity
100
AcDbMText
  8
STANDARD
 62
7
370
-1
  6
ByLayer
 10
-120.4383113190201158
 20
-43.9160454922390997
 30
0.0
 40
1.5
 41
1500.0
 71
5
 72
2
  1
reset
  7
STYLE1
 50
0.0
 73
1
 44
1.0
  0
MTEXT
  5
4C
100
AcDbEntity
100
AcDbMText
  8
STANDARD
 62
7
370
-1
  6
ByLayer
 10
-120.4383113190201158
 20
-55.9160454922390571
 30
0.0
 40
1.5
 41
1500.0
 71
5
 72
2
  1
index-enable
  7
STYLE1
 50
0.0
 73
1
 44
1.0
  0
LINE
  5
4D
100
AcDbEntity
100
AcDbLine
  8
STANDARD
 62
7
370
-1
  6
ByLayer
 10
-25.9383113190201513
 20
-33.4160454922390571
 30
0.0
 11
-25.9383113190201513
 21
-28.9160454922390997
 31
0.0
  0
LWPOLYLINE
  5
4E
  8
STANDARD
 62
7
370
-1
  6
ByLayer
100
AcDbEntity
100
AcDbPolyline
 90
7
 70
1
 10
-1.93831131902013
 20
-57.4160454922390784
 10
-3.4383113190201513
 20
-55.9160454922390571
 10
-1.93831131902013
 20
-54.4160454922390358
 10
17.5616886809798274
 20
-54.4160454922390358
 10
17.5616886809798274
 20
-57.4160454922390784
 10
-1.93831131902013
 20
-57.4160454922390784
 10
-1.93831131902013
 20
-57.4160454922390784
  0
LWPOLYLINE
  5
4F
  8
STANDARD
 62
7
370
-1
  6
ByLayer
100
AcDbEntity
100
AcDbPolyline
 90
7
 70
1
 10
-1.93831131902013
 20
-27.4160454922390784
 10
-3.4383113190201513
 20
-25.9160454922390571
 10
-1.93831131902013
 20
-24.416045492239089
 10
17.5616886809798274
 20
-24.416045492239089
 10
17.5616886809798274
 20
-27.4160454922390784
 10
-1.93831131902013
 20
-27.4160454922390784
 10
-1.93831131902013
 20
-27.4160454922390784
  0
LWPOLYLINE
  5
50
  8
STANDARD
 62
7
370
-1
  6
ByLayer
100
AcDbEntity
100
AcDbPolyline
 90
7
 70
1
 10
-1.93831131902013
 20
-21.4160454922390997
 10
-3.4383113190201513
 20
-19.9160454922390784
 10
-1.93831131902013
 20
-18.4160454922390571
 10
17.5616886809798274
 20
-18.4160454922390571
 10
17.5616886809798274
 20
-21.4160454922390997
 10
-1.93831131902013
 20
-21.4160454922390997
 10
-1.93831131902013
 20
-21.4160454922390997
  0
LWPOLYLINE
  5
51
  8
STANDARD
 62
7
370
-1
  6
ByLayer
100
AcDbEntity
100
AcDbPolyline
 90
7
 70
1
 10
-127.9383113190201158
 20
-25.9160454922390571
 10
-129.43831131902013
 20
-24.416045492239089
 10
-127.9383113190201158
 20
-22.9160454922390677
 10
-108.4383113190201584
 20
-22.9160454922390677
 10
-108.4383113190201584
 20
-25.9160454922390571
 10
-127.9383113190201158
 20
-25.9160454922390571
 10
-127.9383113190201158
 20
-25.9160454922390571
  0
LWPOLYLINE
  5
52
  8
STANDARD
 62
7
370
-1
  6
ByLayer
100
AcDbEntity
100
AcDbPolyline
 90
7
 70
1
 10
-127.9383113190201158
 20
-10.9160454922390571
 10
-129.43831131902013
 20
-9.416045492239089
 10
-127.9383113190201158
 20
-7.9160454922390677
 10
-108.4383113190201584
 20
-7.9160454922390677
 10
-108.4383113190201584
 20
-10.9160454922390571
 10
-127.9383113190201158
 20
-10.9160454922390571
 10
-127.9383113190201158
 20
-10.9160454922390571
  0
MTEXT
  5
53
100
AcDbEntity
100
AcDbMText
  8
STANDARD
 62
7
370
-1
  6
ByLayer
 10
7.0616886809798913
 20
-55.9160454922390571
 30
0.0
 40
1.5
 41
1500.0
 71
5
 72
2
  1
phase-Z
  7
STYLE1
 50
0.0
 73
1
 44
1.0
  0
MTEXT
  5
54
100
AcDbEntity
100
AcDbMText
  8
STANDARD
 62
7
370
-1
  6
ByLayer
 10
7.0616886809798913
 20
-25.9160454922390571
 30
0.0
 40
1.5
 41
1500.0
 71
5
 72
2
  1
phase-B
  7
STYLE1
 50
0.0
 73
1
 44
1.0
  0
MTEXT
  5
55
100
AcDbEntity
100
AcDbMText
  8
STANDARD
 62
7
370
-1
  6
ByLayer
 10
7.0616886809798913
 20
-19.9160454922390784
 30
0.0
 40
1.5
 41
1500.0
 71
5
 72
2
  1
phase-A
  7
STYLE1
 50
0.0
 73
1
 44
1.0
  0
MTEXT
  5
56
100
AcDbEntity
100
AcDbMText
  8
STANDARD
 62
7
370
-1
  6
ByLayer
 10
-118.9383113190200874
 20
-24.416045492239089
 30
0.0
 40
1.5
 41
1500.0
 71
5
 72
2
  1
counts
  7
STYLE1
 50
0.0
 73
1
 44
1.0
  0
MTEXT
  5
57
100
AcDbEntity
100
AcDbMText
  8
STANDARD
 62
7
370
-1
  6
ByLayer
 10
-118.9383113190200874
 20
-9.416045492239089
 30
0.0
 40
1.5
 41
1500.0
 71
5
 72
2
  1
position
  7
STYLE1
 50
0.0
 73
1
 44
1.0
  0
MTEXT
  5
58
100
AcDbEntity
100
AcDbMText
  8
PARAMS
 62
7
370
-1
  6
ByLayer
 10
-78.4383113190201584
 20
-24.416045492239089
 30
0.0
 40
1.5
 41
1500.0
 71
5
 72
2
  1
latch
  7
STYLE1
 50
0.0
 73
1
 44
1.0
  0
MTEXT
  5
59
100
AcDbEntity
100
AcDbMText
  8
PARAMS
 62
7
370
-1
  6
ByLayer
 10
-34.9383113190201726
 20
-15.4160454922390677
 30
0.0
 40
1.5
 41
1500.0
 71
5
 72
2
  1
counter
  7
STYLE1
 50
0.0
 73
1
 44
1.0
  0
MTEXT
  5
5A
100
AcDbEntity
100
AcDbMText
  8
PARAMS
 62
7
370
-1
  6
ByLayer
 10
-13.9383113190201939
 20
-54.791045492239121
 30
0.0
 40
1.5
 41
1500.0
 71
5
 72
2
  1
edge
  7
STYLE1
 50
0.0
 73
1
 44
1.0
  0
MTEXT
  5
5B
100
AcDbEntity
100
AcDbMText
  8
PARAMS
 62
7
370
-1
  6
ByLayer
 10
-13.9383113190201939
 20
-57.0410454922390997
 30
0.0
 40
1.5
 41
1500.0
 71
5
 72
2
  1
detect
  7
STYLE1
 50
0.0
 73
1
 44
1.0
  0
MTEXT
  5
5C
100
AcDbEntity
100
AcDbMText
  8
PARAMS
 62
7
370
-1
  6
ByLayer
 10
-16.93831131902013
 20
-21.7910454922390784
 30
0.0
 40
1.5
 41
1500.0
 71
5
 72
2
  1
quad
  7
STYLE1
 50
0.0
 73
1
 44
1.0
  0
MTEXT
  5
5D
100
AcDbEntity
100
AcDbMText
  8
PARAMS
 62
7
370
-1
  6
ByLayer
 10
-16.93831131902013
 20
-24.0410454922390571
 30
0.0
 40
1.5
 41
1500.0
 71
5
 72
2
  1
decode
  7
STYLE1
 50
0.0
 73
1
 44
1.0
  0
MTEXT
  5
5E
100
AcDbEntity
100
AcDbMText
  8
PARAMS
 62
7
370
-1
  6
ByLayer
 10
-55.9383113190201513
 20
-13.9160454922390997
 30
0.0
 40
1.5
 41
1500.0
 71
5
 72
2
  1
rawcounts
  7
STYLE1
 50
0.0
 73
1
 44
1.0
  0
MTEXT
  5
5F
100
AcDbEntity
100
AcDbMText
  8
PARAMS
 62
7
370
-1
  6
ByLayer
 10
-88.9383113190201868
 20
-0.4160454922390677
 30
0.0
 40
1.5
 41
1500.0
 71
5
 72
2
  1
position-scale
  7
STYLE1
 50
0.0
 73
1
 44
1.0
  0
LINE
  5
60
100
AcDbEntity
100
AcDbLine
  8
PARAMS
 62
7
370
-1
  6
ByLayer
 10
-64.9383113190201726
 20
-15.4160454922390677
 30
0.0
 11
-64.9383113190201726
 21
-12.4160454922390784
 31
0.0
  0
LINE
  5
61
100
AcDbEntity
100
AcDbLine
  8
PARAMS
 62
7
370
-1
  6
ByLayer
 10
-79.9383113190201726
 20
-1.916045492239089
 30
0.0
 11
-79.9383113190201726
 21
1.0839545077609003
 31
0.0
  0
LINE
  5
62
100
AcDbEntity
100
AcDbLine
  8
PARAMS
 62
7
370
-1
  6
ByLayer
 10
-64.9383113190201726
 20
-12.4160454922390784
 30
0.0
 11
-46.93831131902013
 21
-12.4160454922390784
 31
0.0
  0
LINE
  5
63
100
AcDbEntity
100
AcDbLine
  8
PARAMS
 62
7
370
-1
  6
ByLayer
 10
-79.9383113190201726
 20
1.0839545077609003
 30
0.0
 11
-97.9383113190201016
 21
1.0839545077609003
 31
0.0
  0
LINE
  5
64
100
AcDbEntity
100
AcDbLine
  8
PARAMS
 62
7
370
-1
  6
ByLayer
 10
-46.93831131902013
 20
-12.4160454922390784
 30
0.0
 11
-46.93831131902013
 21
-15.4160454922390677
 31
0.0
  0
LINE
  5
65
100
AcDbEntity
100
AcDbLine
  8
PARAMS
 62
7
370
-1
  6
ByLayer
 10
-97.9383113190201016
 20
1.0839545077609003
 30
0.0
 11
-97.9383113190201016
 21
-1.916045492239089
 31
0.0
  0
LINE
  5
66
100
AcDbEntity
100
AcDbLine
  8
PARAMS
 62
7
370
-1
  6
ByLayer
 10
-46.93831131902013
 20
-15.4160454922390677
 30
0.0
 11
-64.9383113190201726
 21
-15.4160454922390677
 31
0.0
  0
LINE
  5
67
100
AcDbEntity
100
AcDbLine
  8
PARAMS
 62
7
370
-1
  6
ByLayer
 10
-97.9383113190201016
 20
-1.916045492239089
 30
0.0
 11
-79.9383113190201726
 21
-1.916045492239089
 31
0.0
  0
LWPOLYLINE
  5
68
  8
STANDARD
 62
7
370
-1
  6
ByLayer
100
AcDbEntity
100
AcDbPolyline
 90
5
 70
1
 10
-82.9383113190201016
 20
-33.4160454922390571
 10
-82.9383113190201016
 20
-16.916045492239089
 10
-73.9383113190201868
 20
-16.916045492239089
 10
-73.9383113190201868
 20
-33.4160454922390571
 10
-82.9383113190201016
 20
-33.4160454922390571
  0
LWPOLYLINE
  5
69
  8
STANDARD
 62
7
370
-1
  6
ByLayer
100
AcDbEntity
100
AcDbPolyline
 90
5
 70
1
 10
-39.43831131902013
 20
-33.4160454922390571
 10
-39.43831131902013
 20
-16.916045492239089
 10
-30.4383113190201087
 20
-16.916045492239089
 10
-30.4383113190201087
 20
-33.4160454922390571
 10
-39.43831131902013
 20
-33.4160454922390571
  0
LWPOLYLINE
  5
6A
  8
STANDARD
 62
7
370
-1
  6
ByLayer
100
AcDbEntity
100
AcDbPolyline
 90
5
 70
1
 10
-18.4383113190201513
 20
-60.416045492239121
 10
-18.4383113190201513
 20
-51.4160454922390997
 10
-9.43831131902013
 20
-51.4160454922390997
 10
-9.43831131902013
 20
-60.416045492239121
 10
-18.4383113190201513
 20
-60.416045492239121
  0
LWPOLYLINE
  5
6B
  8
STANDARD
 62
7
370
-1
  6
ByLayer
100
AcDbEntity
100
AcDbPolyline
 90
5
 70
1
 10
-21.4383113190201939
 20
-28.9160454922390997
 10
-21.4383113190201939
 20
-16.916045492239089
 10
-12.4383113190201726
 20
-16.916045492239089
 10
-12.4383113190201726
 20
-28.9160454922390997
 10
-21.4383113190201939
 20
-28.9160454922390997
  0
LINE
  5
6C
100
AcDbEntity
100
AcDbLine
  8
STANDARD
 62
7
370
-1
  6
ByLayer
 10
-43.9383113190201939
 20
-13.9160454922390997
 30
0.0
 11
-43.9383113190201939
 21
-24.416045492239089
 31
0.0
  0
LINE
  5
6D
100
AcDbEntity
100
AcDbLine
  8
STANDARD
 62
7
370
-1
  6
ByLayer
 10
-100.9383113190201584
 20
-9.416045492239089
 30
0.0
 11
-101.6883113190201016
 21
-8.6660454922390784
 31
0.0
  0
LINE
  5
6E
100
AcDbEntity
100
AcDbLine
  8
STANDARD
 62
7
370
-1
  6
ByLayer
 10
-100.9383113190201584
 20
-9.416045492239089
 30
0.0
 11
-101.6883113190201016
 21
-10.1660454922390997
 31
0.0
  0
LINE
  5
6F
100
AcDbEntity
100
AcDbLine
  8
STANDARD
 62
7
370
-1
  6
ByLayer
 10
-100.9383113190201584
 20
-9.416045492239089
 30
0.0
 11
-100.1883113190201868
 21
-10.1660454922390997
 31
0.0
  0
LINE
  5
70
100
AcDbEntity
100
AcDbLine
  8
STANDARD
 62
7
370
-1
  6
ByLayer
 10
-100.9383113190201584
 20
-9.416045492239089
 30
0.0
 11
-100.1883113190201868
 21
-8.6660454922390784
 31
0.0
  0
CIRCLE
  5
71
100
AcDbEntity
100
AcDbCircle
  8
STANDARD
 62
7
370
-1
  6
ByLayer
 10
-100.9383113190201584
 20
-9.416045492239089
 30
0.0
 40
2.2500000000000004
  0
LINE
  5
72
100
AcDbEntity
100
AcDbLine
  8
STANDARD
 62
7
370
-1
  6
ByLayer
 10
-25.9383113190201513
 20
-55.9160454922390571
 30
0.0
 11
-108.4383113190201584
 21
-55.9160454922390571
 31
0.0
  0
LINE
  5
73
100
AcDbEntity
100
AcDbLine
  8
STANDARD
 62
7
370
-1
  6
ByLayer
 10
-126.4383113190200874
 20
-25.9160454922390571
 30
0.0
 11
-126.4383113190200874
 21
-42.4160454922390784
 31
0.0
  0
LINE
  5
74
100
AcDbEntity
100
AcDbLine
  8
STANDARD
 62
7
370
-1
  6
ByLayer
 10
-126.4383113190200874
 20
-10.9160454922390571
 30
0.0
 11
-126.4383113190200874
 21
-22.9160454922390677
 31
0.0
  0
LINE
  5
75
100
AcDbEntity
100
AcDbLine
  8
STANDARD
 62
7
370
-1
  6
ByLayer
 10
-126.4383113190200874
 20
-7.9160454922390677
 30
0.0
 11
-126.4383113190200874
 21
11.5839545077608861
 31
0.0
  0
LINE
  5
76
100
AcDbEntity
100
AcDbLine
  8
STANDARD
 62
7
370
-1
  6
ByLayer
 10
-126.4383113190200874
 20
11.5839545077608861
 30
0.0
 11
14.5616886809798842
 21
11.5839545077608861
 31
0.0
  0
LINE
  5
77
100
AcDbEntity
100
AcDbLine
  8
STANDARD
 62
7
370
-1
  6
ByLayer
 10
14.5616886809798842
 20
11.5839545077608861
 30
0.0
 11
14.5616886809798842
 21
-18.4160454922390571
 31
0.0
  0
LINE
  5
78
100
AcDbEntity
100
AcDbLine
  8
STANDARD
 62
7
370
-1
  6
ByLayer
 10
14.5616886809798842
 20
-27.4160454922390784
 30
0.0
 11
14.5616886809798842
 21
-54.4160454922390358
 31
0.0
  0
LINE
  5
79
100
AcDbEntity
100
AcDbLine
  8
STANDARD
 62
7
370
-1
  6
ByLayer
 10
14.5616886809798842
 20
-21.4160454922390997
 30
0.0
 11
14.5616886809798842
 21
-24.416045492239089
 31
0.0
  0
LINE
  5
7A
100
AcDbEntity
100
AcDbLine
  8
STANDARD
 62
7
370
-1
  6
ByLayer
 10
14.5616886809798842
 20
-57.4160454922390784
 30
0.0
 11
14.5616886809798842
 21
-70.91604549223905
 31
0.0
  0
LINE
  5
7B
100
AcDbEntity
100
AcDbLine
  8
STANDARD
 62
7
370
-1
  6
ByLayer
 10
14.5616886809798842
 20
-70.91604549223905
 30
0.0
 11
-126.4383113190200874
 21
-70.91604549223905
 31
0.0
  0
LINE
  5
7C
100
AcDbEntity
100
AcDbLine
  8
STANDARD
 62
7
370
-1
  6
ByLayer
 10
-126.4383113190200874
 20
-54.4160454922390358
 30
0.0
 11
-126.4383113190200874
 21
-45.4160454922390642
 31
0.0
  0
LINE
  5
7D
100
AcDbEntity
100
AcDbLine
  8
STANDARD
 62
7
370
-1
  6
ByLayer
 10
-126.4383113190200874
 20
-70.91604549223905
 30
0.0
 11
-126.4383113190200874
 21
-57.4160454922390784
 31
0.0
  0
LINE
  5
7E
100
AcDbEntity
100
AcDbLine
  8
STANDARD
 62
7
370
-1
  6
ByLayer
 10
-46.93831131902013
 20
-13.9160454922390997
 30
0.0
 11
-43.9383113190201939
 21
-13.9160454922390997
 31
0.0
  0
LWPOLYLINE
  5
7F
  8
STANDARD
 62
7
370
-1
  6
ByLayer
100
AcDbEntity
100
AcDbPolyline
 90
4
 70
0
 10
-46.93831131902013
 20
-13.9160454922390997
 10
-45.7383113190201556
 20
-14.182745492239075
 10
-45.7383113190201556
 20
-13.6493454922390711
 10
-46.93831131902013
 20
-13.9160454922390997
  0
LINE
  5
80
100
AcDbEntity
100
AcDbLine
  8
STANDARD
 62
7
370
-1
  6
ByLayer
 10
-97.9383113190201016
 20
-0.4160454922390677
 30
0.0
 11
-100.9383113190201584
 21
-0.4160454922390677
 31
0.0
  0
LINE
  5
81
100
AcDbEntity
100
AcDbLine
  8
STANDARD
 62
7
370
-1
  6
ByLayer
 10
-12.4383113190201726
 20
-19.9160454922390784
 30
0.0
 11
-3.4383113190201513
 21
-19.9160454922390784
 31
0.0
  0
LWPOLYLINE
  5
82
  8
STANDARD
 62
7
370
-1
  6
ByLayer
100
AcDbEntity
100
AcDbPolyline
 90
4
 70
0
 10
-12.4383113190201726
 20
-19.9160454922390784
 10
-11.2383113190201982
 20
-20.1827454922390537
 10
-11.2383113190201982
 20
-19.6493454922390498
 10
-12.4383113190201726
 20
-19.9160454922390784
  0
LINE
  5
83
100
AcDbEntity
100
AcDbLine
  8
STANDARD
 62
7
370
-1
  6
ByLayer
 10
-12.4383113190201726
 20
-25.9160454922390571
 30
0.0
 11
-3.4383113190201513
 21
-25.9160454922390571
 31
0.0
  0
LWPOLYLINE
  5
84
  8
STANDARD
 62
7
370
-1
  6
ByLayer
100
AcDbEntity
100
AcDbPolyline
 90
4
 70
0
 10
-12.4383113190201726
 20
-25.9160454922390571
 10
-11.2383113190201982
 20
-26.1827454922390856
 10
-11.2383113190201982
 20
-25.6493454922390818
 10
-12.4383113190201726
 20
-25.9160454922390571
  0
LWPOLYLINE
  5
85
  8
STANDARD
 62
7
370
-1
  6
ByLayer
100
AcDbEntity
100
AcDbPolyline
 90
2
 70
0
 10
-30.4383113190201087
 20
-24.416045492239089
 10
-21.4383113190201939
 20
-24.416045492239089
  0
LWPOLYLINE
  5
86
  8
STANDARD
 62
7
370
-1
  6
ByLayer
100
AcDbEntity
100
AcDbPolyline
 90
4
 70
0
 10
-30.4383113190201087
 20
-24.416045492239089
 10
-29.2383113190201342
 20
-24.6827454922390643
 10
-29.2383113190201342
 20
-24.1493454922390605
 10
-30.4383113190201087
 20
-24.416045492239089
  0
LWPOLYLINE
  5
87
  8
STANDARD
 62
7
370
-1
  6
ByLayer
100
AcDbEntity
100
AcDbPolyline
 90
2
 70
0
 10
-30.4383113190201087
 20
-21.4160454922390997
 10
-21.4383113190201939
 20
-21.4160454922390997
  0
LWPOLYLINE
  5
88
  8
STANDARD
 62
7
370
-1
  6
ByLayer
100
AcDbEntity
100
AcDbPolyline
 90
4
 70
0
 10
-30.4383113190201087
 20
-21.4160454922390997
 10
-29.2383113190201342
 20
-21.682745492239075
 10
-29.2383113190201342
 20
-21.1493454922390711
 10
-30.4383113190201087
 20
-21.4160454922390997
  0
MTEXT
  5
89
100
AcDbEntity
100
AcDbMText
  8
STANDARD
 62
7
370
-1
  6
ByLayer
 10
-30.4383113190201087
 20
-21.4160454922390997
 30
0.0
 40
1.5
 41
1500.0
 71
6
 72
2
  1
up/dn
  7
STYLE1
 50
0.0
 73
1
 44
1.0
  0
MTEXT
  5
8A
100
AcDbEntity
100
AcDbMText
  8
STANDARD
 62
7
370
-1
  6
ByLayer
 10
-30.4383113190201087
 20
-24.416045492239089
 30
0.0
 40
1.5
 41
1500.0
 71
6
 72
2
  1
count
  7
STYLE1
 50
0.0
 73
1
 44
1.0
  0
MTEXT
  5
8B
100
AcDbEntity
100
AcDbMText
  8
STANDARD
 62
7
370
-1
  6
ByLayer
 10
-30.4383113190201087
 20
-28.9160454922390997
 30
0.0
 40
1.5
 41
1500.0
 71
6
 72
2
  1
clear
  7
STYLE1
 50
0.0
 73
1
 44
1.0
  0
LINE
  5
8C
100
AcDbEntity
100
AcDbLine
  8
STANDARD
 62
7
370
-1
  6
ByLayer
 10
-43.9383113190201939
 20
-24.416045492239089
 30
0.0
 11
-39.43831131902013
 21
-24.416045492239089
 31
0.0
  0
LWPOLYLINE
  5
8D
  8
STANDARD
 62
7
370
-1
  6
ByLayer
100
AcDbEntity
100
AcDbPolyline
 90
4
 70
0
 10
-43.9383113190201939
 20
-24.416045492239089
 10
-42.7383113190201129
 20
-24.6827454922390643
 10
-42.7383113190201129
 20
-24.1493454922390605
 10
-43.9383113190201939
 20
-24.416045492239089
  0
ARC
  5
8E
100
AcDbEntity
  8
STANDARD
 62
7
370
-1
  6
ByLayer
100
AcDbCircle
 10
-24.43831131902013
 20
-49.166045492239121
 30
0.0
 40
2.2500000000000004
100
AcDbArc
 50
0.0
 51
180.0
  0
LINE
  5
8F
100
AcDbEntity
100
AcDbLine
  8
STANDARD
 62
7
370
-1
  6
ByLayer
 10
-22.1883113190201513
 20
-49.166045492239121
 30
0.0
 11
-22.1883113190201513
 21
-52.916045492239121
 31
0.0
  0
LINE
  5
90
100
AcDbEntity
100
AcDbLine
  8
STANDARD
 62
7
370
-1
  6
ByLayer
 10
-22.1883113190201513
 20
-52.916045492239121
 30
0.0
 11
-26.6883113190201087
 21
-52.916045492239121
 31
0.0
  0
LINE
  5
91
100
AcDbEntity
100
AcDbLine
  8
STANDARD
 62
7
370
-1
  6
ByLayer
 10
-26.6883113190201087
 20
-52.916045492239121
 30
0.0
 11
-26.6883113190201087
 21
-49.166045492239121
 31
0.0
  0
LINE
  5
92
100
AcDbEntity
100
AcDbLine
  8
STANDARD
 62
7
370
-1
  6
ByLayer
 10
-30.4383113190201087
 20
-28.9160454922390997
 30
0.0
 11
-25.9383113190201513
 21
-28.9160454922390997
 31
0.0
  0
LWPOLYLINE
  5
93
  8
STANDARD
 62
7
370
-1
  6
ByLayer
100
AcDbEntity
100
AcDbPolyline
 90
4
 70
0
 10
-30.4383113190201087
 20
-28.9160454922390997
 10
-29.2383113190201342
 20
-29.182745492239075
 10
-29.2383113190201342
 20
-28.6493454922390711
 10
-30.4383113190201087
 20
-28.9160454922390997
  0
LINE
  5
94
100
AcDbEntity
100
AcDbLine
  8
STANDARD
 62
7
370
-1
  6
ByLayer
 10
-22.9383113190201087
 20
-55.9160454922390571
 30
0.0
 11
-18.4383113190201513
 21
-55.9160454922390571
 31
0.0
  0
LINE
  5
95
100
AcDbEntity
100
AcDbLine
  8
STANDARD
 62
7
370
-1
  6
ByLayer
 10
-22.9383113190201087
 20
-55.9160454922390571
 30
0.0
 11
-22.9383113190201087
 21
-52.916045492239121
 31
0.0
  0
LWPOLYLINE
  5
96
  8
STANDARD
 62
7
370
-1
  6
ByLayer
100
AcDbEntity
100
AcDbPolyline
 90
4
 70
0
 10
-22.9383113190201087
 20
-52.916045492239121
 10
-23.2050113190201373
 20
-54.1160454922390954
 10
-22.6716113190201867
 20
-54.1160454922390954
 10
-22.9383113190201087
 20
-52.916045492239121
  0
LWPOLYLINE
  5
97
  8
STANDARD
 62
7
370
-1
  6
ByLayer
100
AcDbEntity
100
AcDbPolyline
 90
2
 70
0
 10
-73.9383113190201868
 20
-24.416045492239089
 10
-43.9383113190201939
 20
-24.416045492239089
  0
LWPOLYLINE
  5
98
  8
STANDARD
 62
7
370
-1
  6
ByLayer
100
AcDbEntity
100
AcDbPolyline
 90
4
 70
0
 10
-73.9383113190201868
 20
-24.416045492239089
 10
-72.7383113190201129
 20
-24.6827454922390643
 10
-72.7383113190201129
 20
-24.1493454922390605
 10
-73.9383113190201868
 20
-24.416045492239089
  0
LINE
  5
99
100
AcDbEntity
100
AcDbLine
  8
STANDARD
 62
7
370
-1
  6
ByLayer
 10
-98.6883113190201726
 20
-9.416045492239089
 30
0.0
 11
-91.93831131902013
 21
-9.416045492239089
 31
0.0
  0
LWPOLYLINE
  5
9A
  8
STANDARD
 62
7
370
-1
  6
ByLayer
100
AcDbEntity
100
AcDbPolyline
 90
4
 70
0
 10
-98.6883113190201726
 20
-9.416045492239089
 10
-97.4883113190201982
 20
-9.6827454922390643
 10
-97.4883113190201982
 20
-9.1493454922390605
 10
-98.6883113190201726
 20
-9.416045492239089
  0
LINE
  5
9B
100
AcDbEntity
100
AcDbLine
  8
STANDARD
 62
7
370
-1
  6
ByLayer
 10
-100.9383113190201584
 20
-0.4160454922390677
 30
0.0
 11
-100.9383113190201584
 21
-7.1660454922390571
 31
0.0
  0
LWPOLYLINE
  5
9C
  8
STANDARD
 62
7
370
-1
  6
ByLayer
100
AcDbEntity
100
AcDbPolyline
 90
4
 70
0
 10
-100.9383113190201584
 20
-7.1660454922390571
 10
-100.6716113190201156
 20
-5.9660454922390826
 10
-101.2050113190201728
 20
-5.9660454922390826
 10
-100.9383113190201584
 20
-7.1660454922390571
  0
LINE
  5
9D
100
AcDbEntity
100
AcDbLine
  8
STANDARD
 62
7
370
-1
  6
ByLayer
 10
-25.9383113190201513
 20
-55.9160454922390571
 30
0.0
 11
-25.9383113190201513
 21
-52.916045492239121
 31
0.0
  0
LWPOLYLINE
  5
9E
  8
STANDARD
 62
7
370
-1
  6
ByLayer
100
AcDbEntity
100
AcDbPolyline
 90
4
 70
0
 10
-25.9383113190201513
 20
-52.916045492239121
 10
-26.2050113190201799
 20
-54.1160454922390954
 10
-25.6716113190201227
 20
-54.1160454922390954
 10
-25.9383113190201513
 20
-52.916045492239121
  0
LINE
  5
9F
100
AcDbEntity
100
AcDbLine
  8
STANDARD
 62
7
370
-1
  6
ByLayer
 10
-82.9383113190201016
 20
-24.416045492239089
 30
0.0
 11
-91.93831131902013
 21
-24.416045492239089
 31
0.0
  0
LWPOLYLINE
  5
A0
  8
STANDARD
 62
7
370
-1
  6
ByLayer
100
AcDbEntity
100
AcDbPolyline
 90
4
 70
0
 10
-91.93831131902013
 20
-24.416045492239089
 10
-90.7383113190201556
 20
-24.6827454922390643
 10
-90.7383113190201556
 20
-24.1493454922390605
 10
-91.93831131902013
 20
-24.416045492239089
  0
LINE
  5
A1
100
AcDbEntity
100
AcDbLine
  8
STANDARD
 62
7
370
-1
  6
ByLayer
 10
-91.93831131902013
 20
-24.416045492239089
 30
0.0
 11
-108.4383113190201584
 21
-24.416045492239089
 31
0.0
  0
LWPOLYLINE
  5
A2
  8
STANDARD
 62
7
370
-1
  6
ByLayer
100
AcDbEntity
100
AcDbPolyline
 90
4
 70
0
 10
-108.4383113190201584
 20
-24.416045492239089
 10
-107.2383113190201698
 20
-24.6827454922390643
 10
-107.2383113190201698
 20
-24.1493454922390605
 10
-108.4383113190201584
 20
-24.416045492239089
  0
LINE
  5
A3
100
AcDbEntity
100
AcDbLine
  8
STANDARD
 62
7
370
-1
  6
ByLayer
 10
-103.18831131902013
 20
-9.416045492239089
 30
0.0
 11
-108.4383113190201584
 21
-9.416045492239089
 31
0.0
  0
LWPOLYLINE
  5
A4
  8
STANDARD
 62
7
370
-1
  6
ByLayer
100
AcDbEntity
100
AcDbPolyline
 90
4
 70
0
 10
-108.4383113190201584
 20
-9.416045492239089
 10
-107.2383113190201698
 20
-9.6827454922390643
 10
-107.2383113190201698
 20
-9.1493454922390605
 10
-108.4383113190201584
 20
-9.416045492239089
  0
LINE
  5
A5
100
AcDbEntity
100
AcDbLine
  8
STANDARD
 62
7
370
-1
  6
ByLayer
 10
-91.93831131902013
 20
-9.416045492239089
 30
0.0
 11
-91.93831131902013
 21
-24.416045492239089
 31
0.0
  0
ARC
  5
A6
100
AcDbEntity
  8
STANDARD
 62
7
370
-1
  6
ByLayer
100
AcDbCircle
 10
-25.9383113190201513
 20
-42.852980492239098
 30
0.0
 40
3.75
100
AcDbArc
 50
53.1301020000000008
 51
126.8698980000000063
  0
ARC
  5
A7
100
AcDbEntity
  8
STANDARD
 62
7
370
-1
  6
ByLayer
100
AcDbCircle
 10
-22.0631813190201669
 20
-38.1839604922390663
 30
0.0
 40
6.144075
100
AcDbArc
 50
129.1025710000000117
 51
184.5002479999999991
  0
ARC
  5
A8
100
AcDbEntity
  8
STANDARD
 62
7
370
-1
  6
ByLayer
100
AcDbCircle
 10
-29.8134413190201357
 20
-38.1839604922390663
 30
0.0
 40
6.144075
100
AcDbArc
 50
355.4997520000000009
 51
410.8974289999999883
  0
LINE
  5
A9
100
AcDbEntity
100
AcDbLine
  8
STANDARD
 62
7
370
-1
  6
ByLayer
 10
-23.6883113190201726
 20
-38.6660454922390784
 30
0.0
 11
-23.6883113190201726
 21
-39.8529804922390554
 31
0.0
  0
LINE
  5
AA
100
AcDbEntity
100
AcDbLine
  8
STANDARD
 62
7
370
-1
  6
ByLayer
 10
-28.18831131902013
 20
-38.6660454922390784
 30
0.0
 11
-28.18831131902013
 21
-39.8529804922390554
 31
0.0
  0
LINE
  5
AB
100
AcDbEntity
100
AcDbLine
  8
STANDARD
 62
7
370
-1
  6
ByLayer
 10
-108.4383113190201584
 20
-43.9160454922390997
 30
0.0
 11
-27.4383113190201726
 21
-43.9160454922390997
 31
0.0
  0
LINE
  5
AC
100
AcDbEntity
100
AcDbLine
  8
STANDARD
 62
7
370
-1
  6
ByLayer
 10
-27.4383113190201726
 20
-43.9160454922390997
 30
0.0
 11
-27.4383113190201726
 21
-39.4160454922390926
 31
0.0
  0
LWPOLYLINE
  5
AD
  8
STANDARD
 62
7
370
-1
  6
ByLayer
100
AcDbEntity
100
AcDbPolyline
 90
4
 70
0
 10
-27.4383113190201726
 20
-39.4160454922390926
 10
-27.7050113190202012
 20
-40.616045492239067
 10
-27.171611319020144
 20
-40.616045492239067
 10
-27.4383113190201726
 20
-39.4160454922390926
  0
LINE
  5
AE
100
AcDbEntity
100
AcDbLine
  8
STANDARD
 62
7
370
-1
  6
ByLayer
 10
-24.43831131902013
 20
-46.9160454922390926
 30
0.0
 11
-24.43831131902013
 21
-39.4160454922390926
 31
0.0
  0
LWPOLYLINE
  5
AF
  8
STANDARD
 62
7
370
-1
  6
ByLayer
100
AcDbEntity
100
AcDbPolyline
 90
4
 70
0
 10
-24.43831131902013
 20
-39.4160454922390926
 10
-24.7050113190201586
 20
-40.616045492239067
 10
-24.1716113190201014
 20
-40.616045492239067
 10
-24.43831131902013
 20
-39.4160454922390926
  0
LINE
  5
B0
100
AcDbEntity
100
AcDbLine
  8
STANDARD
 62
7
370
-1
  6
ByLayer
 10
-9.43831131902013
 20
-55.9160454922390571
 30
0.0
 11
-3.4383113190201513
 21
-55.9160454922390571
 31
0.0
  0
LWPOLYLINE
  5
B1
  8
STANDARD
 62
7
370
-1
  6
ByLayer
100
AcDbEntity
100
AcDbPolyline
 90
4
 70
0
 10
-9.43831131902013
 20
-55.9160454922390571
 10
-8.2383113190201556
 20
-56.1827454922390856
 10
-8.2383113190201556
 20
-55.6493454922390285
 10
-9.43831131902013
 20
-55.9160454922390571
  0
LINE
  5
B2
100
AcDbEntity
100
AcDbLine
  8
STANDARD
 62
7
370
-1
  6
CONTINUOUS
 10
-69.43831131902013
 20
11.5839545077608861
 30
0.0
 11
-69.43831131902013
 21
-70.91604549223905
 31
0.0
  0
MTEXT
  5
B3
100
AcDbEntity
100
AcDbMText
  8
STANDARD
 62
7
370
-1
  6
ByLayer
 10
-25.9383113190201513
 20
7.0839545077609287
 30
0.0
 40
1.5
 41
1500.0
 71
5
 72
2
  1
update-counters()
  7
STYLE1
 50
0.0
 73
1
 44
1.0
  0
MTEXT
  5
B4
100
AcDbEntity
100
AcDbMText
  8
STANDARD
 62
7
370
-1
  6
ByLayer
 10
-97.9383113190201016
 20
7.0839545077609287
 30
0.0
 40
1.5
 41
1500.0
 71
5
 72
2
  1
capture-position()
  7
STYLE1
 50
0.0
 73
1
 44
1.0
  0
MTEXT
  5
B5
100
AcDbEntity
100
AcDbMText
  8
STANDARD
 62
7
370
-1
  6
ByLayer
 10
-108.4383113190201584
 20
-66.4160454922391068
 30
0.0
 40
3.0
 41
1500.0
 71
5
 72
2
  1
encoder.0
  7
STYLE1
 50
0.0
 73
1
 44
1.0
  0
ENDSEC
  0
SECTION
  2
OBJECTS
  0
DICTIONARY
  5
C
100
AcDbDictionary
280
0
281
1
  3
ACAD_GROUP
350
D
  3
ACAD_LAYOUT
350
1A
  3
ACAD_MLINESTYLE
350
17
  3
ACAD_PLOTSETTINGS
350
19
  3
ACAD_PLOTSTYLENAME
350
E
  3
AcDbVariableDictionary
350
B6
  0
DICTIONARY
  5
D
100
AcDbDictionary
280
0
281
1
  0
ACDBDICTIONARYWDFLT
  5
E
100
AcDbDictionary
281
1
  3
Normal
350
F
100
AcDbDictionaryWithDefault
340
F
  0
ACDBPLACEHOLDER
  5
F
  0
DICTIONARY
  5
17
100
AcDbDictionary
280
0
281
1
  3
Standard
350
18
  0
MLINESTYLE
  5
18
100
AcDbMlineStyle
  2
STANDARD
 70
0
  3

 62
256
 51
90.0
 52
90.0
 71
2
 49
0.5
 62
256
  6
BYLAYER
 49
-0.5
 62
256
  6
BYLAYER
  0
DICTIONARY
  5
19
100
AcDbDictionary
280
0
281
1
  0
DICTIONARY
  5
1A
100
AcDbDictionary
281
1
  3
Layout1
350
1E
  3
Layout2
350
26
  3
Model
350
22
  0
LAYOUT
  5
1E
100
AcDbPlotSettings
  1

  2
C:\Program Files\AutoCAD 2002\plotters\DWF ePlot (optimized for plotting).pc3
  4

  6

 40
0.0
 41
0.0
 42
0.0
 43
0.0
 44
0.0
 45
0.0
 46
0.0
 47
0.0
 48
0.0
 49
0.0
140
0.0
141
0.0
142
1.0
143
1.0
 70
688
 72
0
 73
0
 74
5
  7

 75
16
147
1.0
148
0.0
149
0.0
100
AcDbLayout
  1
Layout1
 70
1
 71
1
 10
0.0
 20
0.0
 11
420.0
 21
297.0
 12
0.0
 22
0.0
 32
0.0
 14
100000000000000000000.0
 24
100000000000000000000.0
 34
100000000000000000000.0
 15
-100000000000000000000.0
 25
-100000000000000000000.0
 35
-100000000000000000000.0
146
0.0
 13
0.0
 23
0.0
 33
0.0
 16
1.0
 26
0.0
 36
0.0
 17
0.0
 27
1.0
 37
0.0
 76
0
330
1B
  0
LAYOUT
  5
22
100
AcDbPlotSettings
  1

  2
C:\Program Files\AutoCAD 2002\plotters\DWF ePlot (optimized for plotting).pc3
  4

  6

 40
0.0
 41
0.0
 42
0.0
 43
0.0
 44
0.0
 45
0.0
 46
0.0
 47
0.0
 48
0.0
 49
0.0
140
0.0
141
0.0
142
1.0
143
1.0
 70
1712
 72
0
 73
0
 74
0
  7

 75
0
147
1.0
148
0.0
149
0.0
100
AcDbLayout
  1
Model
 70
1
 71
0
 10
0.0
 20
0.0
 11
12.0
 21
9.0
 12
0.0
 22
0.0
 32
0.0
 14
0.0
 24
0.0
 34
0.0
 15
0.0
 25
0.0
 35
0.0
146
0.0
 13
0.0
 23
0.0
 33
0.0
 16
1.0
 26
0.0
 36
0.0
 17
0.0
 27
1.0
 37
0.0
 76
0
330
1F
  0
LAYOUT
  5
26
100
AcDbPlotSettings
  1

  2
C:\Program Files\AutoCAD 2002\plotters\DWF ePlot (optimized for plotting).pc3
  4

  6

 40
0.0
 41
0.0
 42
0.0
 43
0.0
 44
0.0
 45
0.0
 46
0.0
 47
0.0
 48
0.0
 49
0.0
140
0.0
141
0.0
142
1.0
143
1.0
 70
688
 72
0
 73
0
 74
5
  7

 75
16
147
1.0
148
0.0
149
0.0
100
AcDbLayout
  1
Layout2
 70
1
 71
2
 10
0.0
 20
0.0
 11
12.0
 21
9.0
 12
0.0
 22
0.0
 32
0.0
 14
0.0
 24
0.0
 34
0.0
 15
0.0
 25
0.0
 35
0.0
146
0.0
 13
0.0
 23
0.0
 33
0.0
 16
1.0
 26
0.0
 36
0.0
 17
0.0
 27
1.0
 37
0.0
 76
0
330
23
  0
DICTIONARY
  5
B6
100
AcDbDictionary
281
1
  3
DIMASSOC
350
B8
  3
HIDETEXT
350
B7
  0
DICTIONARYVAR
  5
B7
100
DictionaryVariables
280
0
  1
2
  0
DICTIONARYVAR
  5
B8
100
DictionaryVariables
280
0
  1
1
  0
ENDSEC
  0
EOF
